#1
Been working on this song for a while now but I'm uncertain on how the picking pattern goes. Any help would be appreciated. Here is a link to the song and what I have down for it so far:

Jim Croce - Child Of Midnight
http://www.youtube.com/watch?v=Ae5jO-v9BF4


[font="Courier New"]"Child Of Midnight"
 - Written by Jim Croce

Intro: 

[Guitar 1] 12 String Guitar
   Em9                                                                                       She...
E|----2----2-----2----2---|----2----2-----2----2---|----2----2-----2----2---|----2----2-----2----2---|
B|-----3--------3-3----3--|---3-3----3---3-3----3--|---3-3----3---3-3----3--|---3-3----3---3-3----3--|
G|--------0----------0----|--------0----------0----|--------0----------0----|--------0----------0----|
D|--2----------2----------|--2----------2----------|--2----------2----------|--2----------2----------|
A|------------------------|------------------------|------------------------|------------------------|
E|------------------------|------------------------|------------------------|------------------------|

[Guitar 2]
E|-------------1----------|-----------1------------|------------------------|------------------------|
B|-------------------4----|------4-------4--3-3h4--|------------------------|------------------------|
G|------------------------|------------------------|------------------------|------------------------|
D|------------------------|------------------------|------------------------|------------------------|
A|------------------------|------------------------|------------------------|------------------------|
E|------------------------|------------------------|------------------------|------------------------|

[Bass]
G|------------------------|------------------------|------------------------|------------------------|
D|------------------------|-----------7-5----------|-----------7------------|-----------5h7-5--------|
A|------------------------|--------5-7----5h7-5----|--------5-7--5---5------|--------5h7------7-5----|
E|------------------------|--0--5-7------------7---|--0--5-7-------7---7----|--0--5-7----------------|

Verse:

    Em9                      Asus4                 
She  stood by the window and   let down her hair
C            C/B         Asus4          A    
  Asked if I knew that I   shouldn't be there
    Em9                       Asus4            /B
Her lips said goodbye but her   body said stay
C                 C/B      Asus4     A
  I knew I should go but I stayed anyway

Chorus:

         G            G/F#     Em7
And they   called her child of midnight
         C    
And they   say she'd love
               Dsus2
Whomever she'd find
         G          G/F#   Em7
But when    morning came I loved her
        C                    Dsus2
And she   stayed there in my mind

Verse:

    Em9                      Asus4               /B
She  stood by the window and   let down her hair
C            C/B                  Asus4    A
  Asked if I thought that it was right
     Em9                     Asus4        /B
That she give her body and I give my mind
C                 C/B           A
I looked for an answer all the night

Chorus:

         G            G/F#     Em7
And they   called her child of midnight
         C    
And they   say she'd love
               Dsus2
Whomever she'd find
         G          G/F#   Em7
But when    morning came I loved her
        C                    Dsus2
And she   stayed there in my mind

Verse:

    Em9                      Asus4               /B
She  stood by the window and   tied up her hair
C        C/B      Asus4          A
Acted as if I had   never been there
    Em9                       Asus4             /B
Her lips said goodbye but her   body said stay
C                 C/B      Asus4        A
  I knew I should go but I stayed anyway

Chorus:

         G            G/F#     Em7
And they   called her child of midnight
         C    
And they   say she'd love
               Dsus2
Whomever she'd find
         G          G/F#   Em7
But when    morning came I loved her
        C                    Dsus2
And she   stayed there in my mind


-----| Chords |--------------------------------

  Em9    Asus4     A       G      G/F#    Em7      

 EADGBE  EADGBE  EADGBE  EADGBE  EADGBE  EADGBE
 022032  x02230  x02220  320003  2x0003  022070

   C       C/B   Dsus2

 EADGBE  EADGBE  EADGBE  
 x32010  x20010  xx0230[/FONT]
#3
That's the funniest answer Iv'e ever seen... wish I would have seen it three years ago... has nothing to do with the question or fingerpicking. I think he meant D-U-H, D-U-H, D-U-H, D-U-H... lol. Btw, that picking pattern is easier than you made but I am sure you figured it out in three years.