#1
/watch?v=gQDJ45qJHBQ
I was looking for the tabs of that song but I didn't find the tab of the first 40 seconds. It seems that they only play the begining live and the tabs that I've found are from the studio version..
Last edited by Lyesmith at Mar 20, 2013,
#4
Gtr I (E A D G B E) 

 3/4
  Gtr I
    Q   Q  Q   E E Q  Q   E E E E  E E   Q  E E E E
|-------4----|-----4--2-|----------2s4-|---------------|
|------------|-----0----|-------0------|-5------5------|
|-------4----|---4----2-|-----2--------|------6--------|
|------------|-2--------|---1----------|----6-----6----|
|------------|----------|--------------|-4-------------|
|-<12>-----0-|----------|-0------------|---------------|


  Q   E E E E   E E E E Q   Q  Q  Q   Q  E E E E
|----^4-------|-----------|---------|---------------|
|----^5-5-----|-5-4-------|-0--2--4-|-5------2------|
|-6--^6---6---|-----6---2-|-2--2--4-|------2---2----|
|-----------6-|-------6---|-2-------|----4----------|
|----^4-------|-4-------0-|----0----|---------------|
|-------------|-----------|-------4-|-2-------------|


  Q   E E E E   E E E E E E   E E E E E E
|-------------|---0-2-----0-|-------0---0----|
|-------0-2s4-|-4-----------|-0---0---0------|
|----^2---2s4-|-4-4-4---1---|---1-----1------|
|-4--^2-------|---------4---|---------4------|
|----^0---0---|-2-----------|----------------|
|----^0-------|-------0-----|----------------|


  Q.   E E E   E E Q  E E   E E E E Q   E E E E E  E
|-4----------|-4s2-2------|-----2s4---|-----------------|
|----------0-|------------|---0-----5-|-----5-----------|
|-4------4---|-4s2-2------|-2---------|---6-----6-------|
|------2-----|----------1-|-----------|-6-----6---------|
|------------|------------|---------4-|-----------\2----|
|-0----------|-----0--0---|-----------|-----------------|


  E E E E E E   E E Q  Q    Q  Q  Q    E E E E Q
|-0-----------|-----------|----------|--------------|
|---3-------3-|--------0--|-2--4--5--|-----2--------|
|-------4-----|---4-2--2--|-2--4-----|---2---2------|
|-----4-------|-4------2--|----------|-4-------4----|
|---------2---|-----0-----|-0--------|--------------|
|-------------|-----------|----4--2--|--------------|


   E E E E E E   E E E E E E    E E E E E E
|------------0-|-2-----0-----|-!0-0-------0-|
|----0-2s4-4---|---------0---|-!0---0---0---|
|-^2---2s4-4-4-|-4---1-----1-|----1---1---1-|
|-^2-----------|-----4---4---|-!4---4---4---|
|-^0---0---2---|-------------|--------2-----|
|-^0-----------|---0-------0-|--------------|


  E E E  E    E    E      E   E  E
|---0-----------------|-<12>----------|
|-0--------------<12>-|---------------|
|---1-------<12>------|------12s13----|
|-4-------------------|---------------|
|-------<7>-----------|---------------|
|-----0---------------|---------------|
#5
The tab seems pretty accurate..
Thank you so much, you're awesome
Last edited by Lyesmith at Apr 2, 2013,