#2
intro:

e|-9-7-7h9-----------7--/9---\7--7h9--5----------------------------|
B|-7--------5--------9--/10--\9--9----7-----------5----------------|
G|-7--------6-----6--7----------------7----7---7--6----------------|
D|-7--------7---7----9----------------7----7h9----7----------------|
A|----------7--------7----------------5-----------7----------------|
E|----------5-------------------------------------5----------------|


verse:


e|-----------7-5-7----------------------------------------|
B|--------7--7-5-7---7----------2------------2------------|
G|--------7----------7----------2------------2------------|
D|--------7----------7----------4---4-7-8-9--4------------|
A|--------9----------9----------4---4-7-8-9--4------------|
E|-5-6-7--7--------7----7\0-1-2-2---2-5-6-7--2------------|


chorus:
           D     C#m     F#m 
I've got a heart full of love

  D     C#m     F#m  
a heart full of love

  D     C#m     Bm7 
a heart full of love

    F#m
for you
Last edited by Seany at Apr 2, 2013,