tall011
Registered User
Join date: Feb 2013
369 IQ
#1


Somebody think they could tab that song for me?

I wish i could do it myself, but i don't know how yet and i want to learn to play it like.... now....
daniel.kPL
Registered User
Join date: May 2011
890 IQ
#3
t=104

Have fun!

Like my fb profile if you want to

E |----------------------------|----------------------------|
B |----------------------------|----------------------------|
G |----------------------------|--------------3-----3--3----|
D |-----------------------3----|--3-----3-------------------|
A |----------------------------|----------------------------|
E |----------------------------|----------------------------|


----------------------------|----------------------------|
--1--1--3-----1-------------|--1-----1--1--1-------------|
-----------------3--0-------|--------------------3-------|
----------------------------|----------------------------|
----------------------------|----------------------------|
----------------------------|----------------------------|


----------------------------|----------------|----------------------------|
--3-----1-------------------|----------------|--1-----3-----1-------------|
--------------3-------------|--------3--3----|-----------------3--0-------|
-----------------------3----|--3--3----------|----------------------------|
----------------------------|----------------|----------------------------|
----------------------------|----------------|----------------------------|


----------|----------------------------|----------------|-----1----------|
--1--1----|----------------------------|--1-----3--1----|--3-----1-------|
----------|--3-----0--0----------------|----------------|----------------|
----------|--------------3-------------|----------------|----------------|
----------|----------------------------|----------------|----------------|
----------|----------------------------|----------------|----------------|


----------------|----------------|----------------|-----1----------|
-----3----------|----------------|--1-----3--1----|--3-----1-------|
--3-----3-------|--3--0----------|----------------|----------------|
----------------|--------3-------|----------------|----------------|
----------------|----------------|----------------|----------------|
----------------|----------------|----------------|----------------|


----------------------------|----------||
--------3--3----------------|----------||
--3-----------3--3--0-------|----------||
----------------------------|--3-------||
----------------------------|----------||
----------------------------|----------||
Last edited by daniel.kPL at Apr 8, 2013,