hush1
Registered User
Join date: Feb 2012
151 IQ
#1
This is a gorgeous song by Neige from Alcest and I can't believe there aren't any tabs on here of it. Can anyone possibly make one up? I've tried piecing it together, but my ear just isn't developed enough to even make out the chords.

http://www.youtube.com/watch?v=xCwGMLncumM

Even little help would be greatly appreciated. =] I love this song so much and I simply have to play it for people. More must know of this beautiful music! =P

\m/
Goad
goadiroth
Join date: Dec 2006
4,398 IQ
#2
It's in E-flat Standard tuning.


INTRO (x2)
|-------------------|-------------------|
|-----3-----3-----3-|-----3-----3-----3-|
|---2-----0-----0---|---2-----0-----0---|
|-0-----3-----2-----|-0-----3-----------|
|-------------------|-------------3-----|
|-------------------|-------------------|

|-3-1-0--|-------------------------------|
|--------|-----3-----3-----3-----3-----3-|
|--------|---2-----0-----0-----0-----0---|
|--------|-0-----3-----2-----------------|
|--------|-------------------3-----------|
|--------|-------------------------3-----|

BEGIN SOLOISH PART:
|-------0-1-1h3-1---0-|
|-----3---------------|
|---2-----------------|
|-0-------------------|
|---------------------|
|---------------------|


That's part of the intro. It's really simple!
hush1
Registered User
Join date: Feb 2012
151 IQ
#3
That sounds about right. =P I feel there's something missing, but this is a good start. Thanks. =p