#1
Hi. I was just looking at the tab queue and saw a tab for a song I didn't know, but quite like the title of; The Ergs 'Obligatory Song About Killing Ones Boyfriend Or Girl What If I Killed Your New Dead Boyfriend'. I found the song on YouTube and the guy's chord tab seems accurate, only he mentions he can't work out a little riff that's in there. So, I figured I'd help him out, and posted this in the comments:

The little second riff is

E|-----------------------------------------
B|--------------12--13--12-----------------
G|----12--14-----------------14------------
D|----------------------------------14-----
A|-----------------------------------------
E|-----------------------------------------

Instead it's come out like

"The little second riff is

E|-----
B|-----12--13--12-----
G|---12--14-----14--- --
D|-----14---
A|-----
E|----- "

What gives? I tried the 'add lines' thing too but it didn't seem to do anything. Now the site won't even let me try to correct it as it says I've already commented.
#2
The tpa comment section is not prepared for posting corrections.
Quote by zappp
emad I'm gonna ban you, seriously.