#1
I'm afraid my vision isn't too good, but I heard this riff and I really want to be able to play it for one of my friends that is in the hospital. Everything else I can play except the main intro guitar riff! I think it is in Drop C but correct me if I'm wrong. Thanks so much guys!

www.youtube.com/watch?v=t0OP4JHm8NQ&list=UUPoVyIJ-oCd9dlibHep43rA&index=5
Epiphone Zakk Wylde Les Paul Custom Bulls-Eye
Epiphone Les Paul Studio Deluxe
Epiphone G400
Epiphone Thunderbird

Fender Frontman 212R

MXR '78 Badass Distortion
MXR Wylde ZW-44 Overdrive
MXR Black Label Chorus
Boss TU-2
Dunlop Wah
#3
|----------------------------------------------------------------------------12------|
|-----------------------------------------------------------------9h10p9------10-|
|----------------------------------------------------------9-11---------------------|
|-4-4-4-7--6----------9---9h11-------7-7-7-9--11-----------------------------|
|-4-4-4---------7-4--------------12--7-7-7--------------------------------------|
|-4-4-4---4--4--4--0---0----------------7-7-7--7----7---7---------------------|

|--------------------------------------------------------------|
|--------------------------------------------------------------|
|--------------------------------------------------------------|
|-2-2-2--4--6--4---2---2h4p0--2-4-0-0-0-0-0-0-0-0-|
|-2-2-2----------------------------2-4-0-0-0-0-0-0-0-0-|
|-2-2-2---2--2---2---2-----------2-4-0-0-0-0-0-0-0-0-|
#4
well it almost came out okay...
|----------------------------------------------------------------------------12------|
|-----------------------------------------------------------------9h10p9------10-|
|----------------------------------------------------------9-11---------------------|
|-4-4-4-7--6----------9---9h11-------7-7-7-9--11-----------------------------|
|-4-4-4---------7-4--------------12---7-7-7--------------------------------------|
|-4-4-4---4--4--4--0---0--------------7-7-7--7----7---7-----------------------|

|--------------------------------------------------------------|
|--------------------------------------------------------------|
|--------------------------------------------------------------|
|-2-2-2--4--6--4---2---2h4p0--2-4-0-0-0-0-0-0-0-0-|
|-2-2-2----------------------------2-4-0-0-0-0-0-0-0-0-|
|-2-2-2---2--2---2---2-----------2-4-0-0-0-0-0-0-0-0-|
#5
Quote by bass_man_dan
well it almost came out okay...
|----------------------------------------------------------------------------12------|
|-----------------------------------------------------------------9h10p9------10-|
|----------------------------------------------------------9-11---------------------|
|-4-4-4-7--6----------9---9h11-------7-7-7-9--11-----------------------------|
|-4-4-4---------7-4--------------12---7-7-7--------------------------------------|
|-4-4-4---4--4--4--0---0--------------7-7-7--7----7---7-----------------------|

|--------------------------------------------------------------|
|--------------------------------------------------------------|
|--------------------------------------------------------------|
|-2-2-2--4--6--4---2---2h4p0--2-4-0-0-0-0-0-0-0-0-|
|-2-2-2----------------------------2-4-0-0-0-0-0-0-0-0-|
|-2-2-2---2--2---2---2-----------2-4-0-0-0-0-0-0-0-0-|



I'll try playing that man! Thanks so much, it means alot that you took your time to do this! You're the man!
Epiphone Zakk Wylde Les Paul Custom Bulls-Eye
Epiphone Les Paul Studio Deluxe
Epiphone G400
Epiphone Thunderbird

Fender Frontman 212R

MXR '78 Badass Distortion
MXR Wylde ZW-44 Overdrive
MXR Black Label Chorus
Boss TU-2
Dunlop Wah