#3
Quote by Downfall93
this is played by GP.. Don't you know the name of the song? I could tab this if you find the song so i can submit the whole thing


Yes it is a recording from Guitar Pro 5 that I had a long time ago. I had the GP5 file on my other computer but the hard drive crashed and now it's gone . I only learned the beginning to this song before I lost the file and would really love to have the rest of the song tabbed so I could learn it
#4

4/4
  Gtr I
  E E E E E E E E   E E E E E E E E
|-7-----7-----9---|-5-----4-----2------|
|---0-----0-------|---0-----0-----0----|
|-----------------|--------------------|
|-----------------|--------------------|
|-0---0-----0---0-|-2---2-----2--------|
|-----------------|--------------------|


  E E E E E E E E   E E E E E E E E
|-0-----0-----0---|-2-----0-----4------|
|---0-----0-----0-|---0-----0-----0----|
|-----------------|--------------------|
|-----------------|--------------------|
|-4---4-----4-----|-4---4-----4--------|
|-----------------|--------------------|


  E E E E E E E E   E E E E E E E E
|-5-----4-----0---|-2-----0------------|
|---0-----0-----0-|---0-----0---4------|
|-----------------|--------------------|
|-----------------|--------------------|
|-0---0-----0-----|-2---2-----2---2----|
|-----------------|--------------------|


  E E E E E E E E   E E E E E E E E
|-0-----0-----0---|-2-----0------------|
|---0-----0-----0-|---0-----0---4------|
|-----------------|--------------------|
|-----------------|--------------------|
|-4---4-----4-----|-4---4-----4---4----|
|-----------------|--------------------|


  E E E E E E E E   E E E E E E E E
|-4-----4-----4---|-2-----2-----0------|
|---0-----0-------|---0-----0-----0----|
|-----------------|--------------------|
|-----------------|--------------------|
|-2---2-----2---2-|-2---2-----2--------|
|-----------------|--------------------|


  E E E E E E E E   E E E E E E E E
|-0---------0-----|-5-----4-----2------|
|---0---0-2---2-0-|---0-----0----------|
|-----2-----------|--------------------|
|-----------------|--------------------|
|-0---------------|-4---4-----4---4----|
|-----------------|--------------------|


              |-3-|
  E E E E E E S S S E   E E E E E E S S E
|-4-----4-----2h4p2p0-|-2-----2-----2p0------|
|---0-----0-----------|---0-----0-------4----|
|---------------------|----------------------|
|---------------------|----------------------|
|-2---2-----2---------|-2---2-----2----------|
|---------------------|----------------------|


  E E E E E E E E   E E E E E E E E
|-0---------0-----|-5-----4-----2------|
|---0---0-2---2-0-|---0-----0----------|
|-----2-----------|--------------------|
|-----------------|--------------------|
|-0---------------|-4---4-----4---4----|
|-----------------|--------------------|


  W
|-0----|
|------|
|------|
|------|
|-0----|
|------|
Attachments:
jsrynsr.ptb
#5
Quote by mustelafuro13

4/4
Gtr I
E E E E E E E E E E E E E E E E
|-7-----7-----9---|-5-----4-----2------|
|---0-----0-------|---0-----0-----0----|
|-----------------|--------------------|
|-----------------|--------------------|
|-0---0-----0---0-|-2---2-----2--------|
|-----------------|--------------------|


E E E E E E E E E E E E E E E E
|-0-----0-----0---|-2-----0-----4------|
|---0-----0-----0-|---0-----0-----0----|
|-----------------|--------------------|
|-----------------|--------------------|
|-4---4-----4-----|-4---4-----4--------|
|-----------------|--------------------|


E E E E E E E E E E E E E E E E
|-5-----4-----0---|-2-----0------------|
|---0-----0-----0-|---0-----0---4------|
|-----------------|--------------------|
|-----------------|--------------------|
|-0---0-----0-----|-2---2-----2---2----|
|-----------------|--------------------|


E E E E E E E E E E E E E E E E
|-0-----0-----0---|-2-----0------------|
|---0-----0-----0-|---0-----0---4------|
|-----------------|--------------------|
|-----------------|--------------------|
|-4---4-----4-----|-4---4-----4---4----|
|-----------------|--------------------|


E E E E E E E E E E E E E E E E
|-4-----4-----4---|-2-----2-----0------|
|---0-----0-------|---0-----0-----0----|
|-----------------|--------------------|
|-----------------|--------------------|
|-2---2-----2---2-|-2---2-----2--------|
|-----------------|--------------------|


E E E E E E E E E E E E E E E E
|-0---------0-----|-5-----4-----2------|
|---0---0-2---2-0-|---0-----0----------|
|-----2-----------|--------------------|
|-----------------|--------------------|
|-0---------------|-4---4-----4---4----|
|-----------------|--------------------|


|-3-|
E E E E E E S S S E E E E E E E S S E
|-4-----4-----2h4p2p0-|-2-----2-----2p0------|
|---0-----0-----------|---0-----0-------4----|
|---------------------|----------------------|
|---------------------|----------------------|
|-2---2-----2---------|-2---2-----2----------|
|---------------------|----------------------|


E E E E E E E E E E E E E E E E
|-0---------0-----|-5-----4-----2------|
|---0---0-2---2-0-|---0-----0----------|
|-----2-----------|--------------------|
|-----------------|--------------------|
|-0---------------|-4---4-----4---4----|
|-----------------|--------------------|


W
|-0----|
|------|
|------|
|------|
|-0----|
|------|



Wow thank you so much! It's perfect