#1
Hey guys, new here. So there's this song I've been wanting to play lately, but I have no idea what the chords are. I can already play the melody and the bassline and all that, but the guitar chords... I can't hear what they are. Never been any good at that.

EDIT #5000: Can't post links apparently. The song's called Corridors of Time by MintJam. I guess you'll have to look it up yourselves. Sorry about that. =/

Anyway... It might be kinda hard to hear because of the base, but at 1:40 and at 2:54, it should be pretty clear. Only question is if the same chords are used throughout the entire song or not. Again, can't hear.

So, thanks in advance to anyone who can help me with this!
Last edited by OmegaMetroid93 at Jun 6, 2013,
#2
I don't know this band so I don't know the tuning and therefore fingering may be different than how it's actually played.
Assuming it's standard tuning

E||-----------3--------|
B||--1--------4--------|
G||--1--------5--------|
D||--3--------3--------|
A||--4-----------------|
E||--------------------|
That are the chords basically, the 2nd chord could be
E||--------||
B||---8----||
G||---8----||
D||--10----||
A||---8----||
E||--------||

The 2nd time it's
E||-----------3----3----||
B||--1--------4----3----||
G||--1--------3----3----||
D||--3--------5----5----||
A||--4--------3----3----||
E||---------------------||

I guess the chord @ 2:11 is
E||--3----||
B||--4----||
G||--3----||
D||--5----||
A||--6----||
E||-------||

This maybe aren't those exact chords but the general idea is this.