#1
Here's a snippet of the tab (I'm tabbing these myself based on my knowledge of playing the song):


-----------5---5---5-
-----------5h6-5h6-5-
-----------5---5---5-
--5-x-5-5------------
--7-x-7-7------------
--5-x-5-5------------

(you hold the bar on the fifth)

IT goes a little somthing like that. Sorry about the poor quality of the tabs, but you essentially do the A 7th (just the first 3) then you play the last three strings and hammer on to the F chord. I know the rhythm but I can't really explain it. Also, here's the intro:

 
-10------------
-10------------
----12b-10-----
-----------12v-
---------------
---------------


h - Hammer-on
x - Mute
b - Bend
v - Vibrato
Last edited by bbman225 at Jun 14, 2013,