#1
I've hit a snag with a string of pull-off's in Evergrey's The corey curse (starts at 2;08)

https://www.youtube.com/watch?v=161lB0-bzuo

The core of the solo is the following pattern:

-(13-12-10)-----------------------------
--------------------------------------------
-----------------(14-12-10)-------------

I'm having a hard time playing it at half the tempo and would appreciate advice on finger positioning.
Last edited by saxon73 at Jun 23, 2013,
#2
I'd probably finger that a little weirdly, just to try and keep it as clean as possible:

e|-13-12-10----------
b|-------------------
g|----------14-12-10-
d|-------------------
a|-------------------
e|-------------------

F--3--2--1--4--2--1


You may also want to know that by the sounds of it that's all picked, doesn't sound legato at all to me. I'm not convinced that the fingering in the tab is right wither but I don't have a guitar with me to check.
R.I.P. My Signature. Lost to us in the great Signature Massacre of 2014.

Quote by Master Foo
“A man who mistakes secrets for knowledge is like a man who, seeking light, hugs a candle so closely that he smothers it and burns his hand.”


Album.
Legion.
Last edited by Zaphod_Beeblebr at Jun 23, 2013,