#1
I found this song a while ago and i really searched everywhere if a tablature really existed, but found nothing and i came here to ask if someone wouldn't be interested to try making a tab on that music:

http://youtu.be/QHKhamvjkkI

if this is not the area to make requests, please someone tell where i could make one.
#2

 4/4
  Gtr I
  Q  E E Q  E E   E E E E Q   E E   H    Q.   E
|-0--0-0--------|-----------------|-0--------------|
|-1--1-1-1--1-1-|-3-5-3-1-0---1-3-|------1----1----|
|-2------2--2-2-|-4-5-4-2-1-------|------2----2----|
|--------3------|-0-------2-0-----|------3----3----|
|-0-------------|-------------3-2-|-0--------------|
|---------------|-----------------|----------------|
  H      H        H       E E E E   H    Q.   E


  E E E E H        Q  Q  Q  Q    E  E  E E H
|----------------|-------------|-0-------------------|
|-3-5-3-1-0------|----0--1--3--|----3--1-0-----------|
|-4-5-4-2-1------|-2--1--2--2--|-1-(1)-----2---------|
|-0-------2--2-2-|-2--2--2--3--|--------------2-2----|
|----------------|-3--2--0-----|-----------0---------|
|----------------|----------1--|-0-------------------|
  H       Q  E E   Q  Q  Q  Q    H         Q  E E


  Q  Q  Q  Q    E  E  E E H
|-------------|-0--------------|
|----0--1--3--|----3--1-0------|
|-2--1--2--2--|-1-(1)-----2----|
|-2--2--2--3--|----------------|
|-0-----0-----|-----------0----|
|----0-----1--|-0--------------|
  Q  Q  Q  Q    H         H


  Q  E E Q  E E   E E E E Q   E E   H    Q.   E
|-0--0-0--------|-----------------|-0--------------|
|-1--1-1-1--1-1-|-3-5-3-1-0---1-3-|-1----1----1----|
|-2------2--2-2-|-4-5-4-2-1-------|-2----2----2----|
|--------3------|-0-------2-0-----|------3----3----|
|-0-------------|-------------3-2-|-0--------------|
|---------------|-----------------|----------------|
  H      H        H       E E E E   H    Q.   E


  E E E E H        Q  Q  Q  Q    E  E  E E H
|----------------|-------------|-0-------------------|
|-3-5-3-1-0------|----0--1--3--|----3--1-0-----------|
|-4-5-4-2-1------|-2--1--2--2--|-1-(1)-----2---------|
|-0-------2--2-2-|-2--2--2--3--|--------------2-2----|
|----------------|-3--2--0-----|-----------0---------|
|----------------|----------1--|-0-------------------|
  H       Q  E E   Q  Q  Q  Q    H         Q  E E


  Q  Q  Q  Q    E  E  T T S E H
|-------------|-0------------------*|
|----0--1--3--|----3--1-3-1-0------*|
|-2--1--2--2--|-1-(1)---------2----*|
|-2--2--2--3--|--------------------*|
|-0-----0-----|---------------0----*|
|----0-----1--|-0------------------*|
  Q  Q  Q  Q    H             H

Attachments:
rain.ptb