#1
I hope this is the right place to put this, anyways. I need help identifying this riff.

e|------------------------------|
B|------------------------------|
G|------------------------------|
D|-0h2---2-0------2-0---2--|
A|---------------2--------2----|
E|-------0----------------------|

Thanks in advance.
______.l
____.!_+_
____G/ /\ |
__{_}_'_(__
_~ (_.,- ' >_'
__ /__>_____
#2
Rhythm?

Did you come up with it or are you sure that you have heard it before? I mean, it seems pretty basic but you can make it sound really different if you just change the rhythm.
Quote by AlanHB
Just remember that there are no boring scales, just boring players.

Gear

Bach Stradivarius 37G
Charvel So Cal
Fender Dimension Bass
Hartke HyDrive 210c
Ibanez BL70
Laney VC30
Tokai TB48
Yamaha FG720S-12
Yamaha P115
#3
I know I've heard it somewhere else. Although I did play it from memory and it's not the exact riff. I think the tempo is 100 or 200, depending on how fast you want to play it. Sorry I'm not so musically inclined as I use to be. It is a blues rock style song if that helps.
______.l
____.!_+_
____G/ /\ |
__{_}_'_(__
_~ (_.,- ' >_'
__ /__>_____
#4
Again, I need to know the rhythm. Are they 8th notes or 4ths or what? You can change the sound of the riff completely just by changing the rhythm.
Quote by AlanHB
Just remember that there are no boring scales, just boring players.

Gear

Bach Stradivarius 37G
Charvel So Cal
Fender Dimension Bass
Hartke HyDrive 210c
Ibanez BL70
Laney VC30
Tokai TB48
Yamaha FG720S-12
Yamaha P115
#5
Here is a more refined version.
4/4 time
tempo 100bpm

e|------------------------------------------------------------------------|
B|------------------------------------------------------------------------|
G|--------------------0(8th)--------------------------------------------|
D|---0---h---2------------2(8th)-0(8th)-2(16th)-0(16th)-2(q)--|
A|(16th)(16th)--------------------------------------------2(16th)---|
E|----------------0(16th)-----------------------------------------------|
______.l
____.!_+_
____G/ /\ |
__{_}_'_(__
_~ (_.,- ' >_'
__ /__>_____
#6
No idea what the riff is, sorry - but here's the guitar pro file just in case anyone knows what it is (easier than guessing from text tabs).
Attachments:
riff.gp5
#8
It is ZZ Top. Thanks eManu3L.
______.l
____.!_+_
____G/ /\ |
__{_}_'_(__
_~ (_.,- ' >_'
__ /__>_____