#1
I'd really like to learn this song. (I'm a gigantic fan of the music of Chris Ross and I'd like to be able to cover as many of his songs as I can haha) Can anyone please help me out with this one?? I've been trying, but I just can't grasp it by ear...

Chris Ross - "She Never Stays Gone"
#2
Sounds like D to Bm for the intro and verses. Then A and G four times before the chorus thing which is just D to Bm again. The D, G and A sound as if they're played as power chords.
#3
Quote by IntCos
Sounds like D to Bm for the intro and verses. Then A and G four times before the chorus thing which is just D to Bm again. The D, G and A sound as if they're played as power chords.



IntCos...I love you. Thanks a bunch ^_^

Would the little riff thing be:

e-------------------------------------------
B-------------------------------------------
G-------------------------------------------
D-5-5-5-3-3-3-3-3-1-1-1-3-3-3-3-3-
A-6-6-6-5-5-5-5-5-3-3-3-5-5-5-5-5-
E-------------------------------------------

Or close to?
Last edited by Mainer at Sep 6, 2013,
#4
No problem. You're a semitone out. If you wanted to play the riff like that play it one fret lower and it will fit the Bm chord that it's played over. One thing though, there's a distinct B note in the bass over that chord so I think he's doing the riff on the 2nd string, like this:

e-------------------------------------------
B-3-3-3-2-2-2-2-2-0-0-0-2-2-2-2-2-
G-4-4-4-4-4-4-4-4-4-4-4-4-4-4-4-4-
D-4-4-4-4-4-4-4-4-4-4-4-4-4-4-4-4-
A-2----2---2----2----2---2----2---2----
E-------------------------------------------

Something like that anyway lol. Notice on the 2nd string you have the same notes as you would be playing with your riff on the 5th string.
Last edited by IntCos at Sep 6, 2013,
#5
Quote by IntCos
No problem. You're a semitone out. If you wanted to play the riff like that play it one fret lower and it will fit the Bm chord that it's played over. One thing though, there's a distinct B note in the bass over that chord so I think he's doing the riff on the 2nd string, like this:

e-------------------------------------------
B-3-3-3-2-2-2-2-2-0-0-0-2-2-2-2-2-
G-4-4-4-4-4-4-4-4-4-4-4-4-4-4-4-4-
D-4-4-4-4-4-4-4-4-4-4-4-4-4-4-4-4-
A-2----2---2----2----2---2----2---2----
E-------------------------------------------

Something like that anyway lol. Notice on the 2nd string you have the same notes as you would be playing with your riff on the 5th string.


Again, thanks a bunch man! This has always been one of my favorites of his