#1
Hello I'm new @ultimateGuitar

I want tabs for the song Life of Crime by The Weirdos

Thats the YT Link
[forbidden link]

Google don't help me so I hope you can help me pls

Thank you
#2
The chords I hear with a lot of distortion are|
F#, E, B, Db

Try these

Also the one guitarist is playing this riff

E ----------------------
B -----2-----2-----2---
G------2-----2-----2---
D --4-----4-----4------
A -----------------------
E -----------------------
Last edited by DON CZARSKI at Oct 31, 2013,
#4
Well if you say so... But make sure you try it out first and see if it sounds correct....ok
Last edited by DON CZARSKI at Oct 31, 2013,
#5

SONG:   LIFE OF CRIME
ARTIST: THE WEIRDOS
TAB BY: DON CZARSKI
EMAIL:  [email]GUITARZAN7@HOTMAIL.COM[/email]


                 LIFE OF CRIME
                  THE WEIRDOS

NOTE: GUITAR 1 - plays rhythm throughout which 
                 is shown here by the chords.
      
GUITAR 2 - mainly plays the following riff
           throughtout the song and variations:

E -------------------------------------------------------------
B ----2---2---2------2---2---2-------2---2---2------2---2---2--
G ----2---2---2------2---2---2-------2---2---2------2---2---2--
D --4---4---4------4---4---4-------2---2---2------4---4---4----
A -------------------------------------------------------------
E -------------------------------------------------------------


INTRO: 
A chord (BEND & RELEASE) then 
F# E F#    F# E F#


VERSE:
F#                                E  F#
I don't wanna play aroun' no more,  yeah
F#                                          E  F#
I see that black cross painted on your door,  yeah 
B
 We was good friends for a long, long time 
     Db
But baby you got hungry for a life of crime 
                     F# E F#    F# E F#
Get the message now? 


VERSE:
F#                                        E F#
The car you drive is painted red and grey 
F#
But if you ask me to get in 
                         E               F#          
Well I'll just run away yeah, yeah, yeah
B
 We was good friends for a long, long time 
     Db                                     Db (bend & release - 8x's)
But baby you got hungry for a life of crime 
                     F# E F#    F# E F# 
Get the message now?


B
 We was good friends for a long, long time 
     Db                                    Db (bend & release - 8x's)
But baby you got hungry for a life of crime 
                     F# E F#    F# E F# 
Get the message now?

OUTRO:
F# E F#    F# E F#