bari93
Registered User
Join date: Nov 2013
10 IQ
#1
Hi!
I have an request. I'm looking for somebody who could do the tab to this song (begins at 3:06)
youtube.com/watch?v=W8khtaYAtcQ
it's used in this song youtube.com/watch?v=fa3mVTGjO4g
I think it sounds great, but I cannot find the tab.. I would be very grateful!
YEIS0N
Registered User
Join date: Nov 2015
122 IQ
#4
Bari I don't know how to tab this for you but it has the guys email on it why don't you just email him to ask for it?
bari93
Registered User
Join date: Nov 2013
10 IQ
#5
I wrote him few times but I got no response, that's why this forum is my last chance.
sashki
Join date: Feb 2005
2,244 IQ
#6
Here's what he plays in the video. Capo on 3rd fret.
|---------0---1-----|-------------------|
|-1---0h1-----1---1-|-(1)-----1-------0-|
|-2-2---------2---0-|-(0)---0---0---0---|
|-2---------------2-|-(2)-2-------2-----|
|-0---------------3-|-(3)---------------|
|-----------1---1---|-----------0-------|


|---------------1-----|---------0-3---/5-3-|
|-1---0h1-0-----1---1-|-(1)---1-----3------|
|-2-2-------0---2---0-|-(0)-0--------------|
|-2-----------------2-|-(2)----------------|
|-0-----------------3-|-(3)-------2--------|
|-------------1---1---|-----------3--------|