#1
Can someone please tell me where i can find a tab for "broken soldier" by the Black Angels. I did already google and check the UG tabs but found nothing.
#2
Here is what I am basically hearing:


they are alternating between these two riffs
E ----------
B ----------
G ----------
D -2--------
A ---3-0----
E -------0--

E ------------
B ------------
G ------------
D -2-2-0------
A --------3---
E ----------0-


then does the same on the G and D strings.....



then the chords played are

E
A
E C A
E C A
C G A

AND variations of these chords

see if this helps a little.....