#1
Hello!
I'm a totally guitar beginner and I have huge problems with finding a missing tab part of the following song:

http://www.youtube.com/watch?v=U8nLLFw-RXI

Mostly it's a repeating of:

E --------------------------------------------------------
B ---8--7---7--5-----8--7---7--5-----8--7---7--5---
G --------7-----------------7-----------------7-------7
D -------------------------------------------------------
A -------------------------------------------------------
E -------------------------------------------------------

But at minute 1:12 there is a change and I just cannot find out the right tab for this part! I really really love this song and would love to play it completely!
So, if there is someone out there who could help me with that missing part, I would be really happy! Thanks in advance!
Greetings
Lara
#2
ok..it depends what version you are doing..if you are doing the cd version then where you are around on the fret board i agree somewhat....however, if you are trying to do the version that is posted here this is what I am hearing....and mind you i am listening through cheap computer speakers... but i am hearing it as follows...
so i am agreeing on what you have basically but in a lower key... and then the 1:12 part i have what i believe it to be


Mostly it's a repeating of:

E ------------------- 
B ------------------- 
G ----6-5----5--3---- 
D ---------6---------
A ------------------- 
E -------------------

OR PLAY IT THIS WAY

E ------------------- 
B ------------------- 
G ----6-5----5------- 
D ---------6---8-----
A ------------------- 
E -------------------

at the 1:12 part he plays this
over and over:

E ------------------- 
B ------------------- 
G -----5h6-5---5----- 
D -----------6-------
A ------------------- 
E -------------------

Last edited by DON CZARSKI at Dec 5, 2013,