#1
There's this girl I like and she is a big post-punk fan. In chem we got talking and I suggested one of my favourite bands, French Kicks. She googled them and the next day said she loved the song Abandon, which I said I could play on the guitar (a white lie). I am going round her house tomorrow to chill and she told me to bring my guitar, so it's likely she'll ask me to play a riff from the song. Can anyone help me figure out the intro riff and the chorus riff. I have a rough idea of the rest.

http://www.youtube.com/watch?v=hS17Y6mk08c

Thanks
#2
12th note on the B string then slide down to the 8th note on the B string.

I'm sure this is missing something, however, it gets some of the lead portion down.

e------10---------------------------|
B---------12-------12--------------|
G--12-----------9-----12----4-----|
D-------------------------------5---|
A-----------------------------------|
E-----------------------------------|


Make sure your strings are properly in tune to standard tuning (EADGBE).
Last edited by mmente at Dec 17, 2013,
#3
Quote by mmente
12th note on the B string then slide down to the 8th note on the B string.

I'm sure this is missing something, however, it gets some of the lead portion down.

e------10---------------------------|
B---------12-------12--------------|
G--12-----------9-----12----4-----|
D-------------------------------5---|
A-----------------------------------|
E-----------------------------------|


Make sure your strings are properly in tune to standard tuning (EADGBE).


Thank you so much!

I have worked the lead intro out in full from what you've gave me.