#1
I'm trying to transcribe this video:

http://www.youtube.com/watch?v=HdmJhUPqurc

But two of his super fast licks are giving me grief.

The first one is at 3:18. I think it's 5 notes long, something like this:

e|-----9h10p9p7-----9h10p9p7-----9h10p9p7-----9h10p9p7--
B|-10---------------10---------------10---------------10--------------

over and over, and then he moves it up a few frets. But I'm not sure. It doesn't sound right but it's hard to tell when it's that fast.


Second one is at 7:33. Again I got this:

e|-------7---------------7---------------7---------------7------------
B|-7h9----9p7---7h9----9p7---7h9----9p7---7h9----9p7----
G|----------------9----------------9---------------9----------------9--

Pretty sure this is wrong. Mine is 6 notes, I think his is 7, but I don't know where it goes.

Any help is appreciated.
#2
The first one should be something like this

e--13h14p13p10--- 13h14p13p10
b--------------------12------------------12

My guitar is not plugged at the moment so its hard to tell with no volume... give it a try.

edit: and then when he moves it a few frets I think he plays

e--14h17p14p13----14h17p14p13
b--------------------15-------------------15

edit again: as for the second lick, I havent tried it yet but try add a chromatic note on the B string, so that you pull off from 9 to 8 and then 7. That would make it a 7 notes lick, and its something Paul Gilbert does a lot so it could be worth a try I guess.
Last edited by tappooh at Jan 7, 2014,
#3
3:17:

-11-14-11----------11-14-11------------
----------15-12-15----------15-12-15---
---------------------------------------
---------------------------------------
---------------------------------------
---------------------------------------


moved up minor third

7:33:

--------7-------------------7-------------
--7-8-9---9-8-9-8-7---7-8-9---9-8-9-8-7---
--------------------9-------------------9-
------------------------------------------
------------------------------------------
------------------------------------------
Last edited by Facecut at Jan 7, 2014,
#4
Quote by Facecut
3:17:

-11-14-11----------11-14-11------------
----------15-12-15----------15-12-15---
---------------------------------------
---------------------------------------
---------------------------------------
---------------------------------------


moved up minor third

7:33:

--------7-------------------7-------------
--7-8-9---9-8-9-8-7---7-8-9---9-8-9-8-7---
--------------------9-------------------9-
------------------------------------------
------------------------------------------
------------------------------------------


The first lick doesnt sound like it, its a five notes lick. I just tried with distortion and im almost 100% sure what I posted earlier is correct.

The 7:33 lick that you posted is definitely correct though.
#5
-11-14-11-10----11-14-11-10---------------
-------------12-------------12------------
------------------------------------------
------------------------------------------
------------------------------------------
------------------------------------------


Same thing with 5 notes and different fingering.
Last edited by Facecut at Jan 7, 2014,
#7
Quote by Facecut
-11-14-11-10----11-14-11-10---------------
-------------12-------------12------------
------------------------------------------
------------------------------------------
------------------------------------------
------------------------------------------


Same thing with 5 notes and different fingering.

Oh thats definitely it, good spot sir! Cool licks indeed.