#1
My tab was for some reason denied, and i decided to tab this song correctly because no one had at least the chorus right. I just want people to play it correctly because even on youtube no one has it right.

For those who can't really hear the guitar throughout the whole song, this is the guitar track. http://www.youtube.com/watch?v=PUCgEBuoDTY

Intro/Verse/Interlude
e|---------------------------------------------------------|
B|---------------------------------------------------------|
G|---------------------------------------------------------|
D|---777/111111---777/111111---777/111111---777/111111/7---|
A|---000----0-0-0---000----0-0-0---000----0-0-0---000---0-0-0------|
E|---555/---9-9-9---555/---9-9-9---555/---9-9-9---555/--9-9-9/5---|
*A is played open the whole song

Chorus/Outro
e|---------------------------------------------------------|
B|---------------------------------------------------------|
G|---------------------------------------------------------|
D|---7-7-7777-7-7777-11-11-111111--9-9-9999-4-4-444/6-6-666/
A|---0-0-0000-0-0000--0---0----0-0-0--0-0-0000-0-0-000----0-000-
E|---5-5-5555-5-5555--9---9----9-9-9--7-7-7777-2-2-222/4-4-444/

e|---------------------------------------------------------|
B|---------------------------------------------------------|
G|---------------------------------------------------------|
D|7-7-7777-7-7777------------------------------------------|
A|---0-0000-0-0000------------------------------------------|
E|5-5-5555-5-5555------------------------------------------|

I copied it directly from when i posted it, turned out weird here though.

EDIT: Forgot to add that it's CAPO on 2nd fret
Last edited by MGRaiden97 at Jan 28, 2014,