#1
https://www.youtube.com/watch?v=CAeRnaRFon


this is an old Amy Winehouse tune. While she wasntthe most adequate guitarists, I loved what she did in this era with her strat and her concept of chords.

can someone tell me the chords/ she used? I'm a beginner and have some figured out but not all of it
#2
I probably could but the link doesn't work on my ipad...it says PLAYBACK ERROR... That is why I always recommend to people to state what the name of the song is and the artist and the exact words used for the you tube video in case something like this occurs.
Last edited by DON CZARSKI at Feb 22, 2014,
#3
Thank you for replying, I understand' please type in Amy winehouse stronger than me rare video
#4
Quote by DON CZARSKI
I probably could but the link doesn't work on my ipad...it says PLAYBACK ERROR... That is why I always recommend to people to state what the name of the song is and the artist and the exact words used for the you tube video in case something like this occurs.



If you can't find ill message
#6
Quote by DON CZARSKI
I believe this is the one you are talking about
http://youtu.be/xZeQszRTojk

And if you go here at the bottom of the page under comments you will see that someone has done a partial tab of it...you must go all the way down the page to the comment section to find it though ok
http://tabs.ultimate-guitar.com/a/amy_winehouse/stronger_than_me_crd.htm



This is the video however these are NOT the chords she is using. I asked for help with this version in the video not the studio version as it's not the same key nor same feel.

Please help, (anyone if you can) I'd appreciate it.
#7
Ok,
But as I stated the guy in the comment section stated specifically that he tabbed it for the video you wanted.. Again, I am not saying the tab itself in the upper section... you have to go down to the comment section...so I guess the guy did not do it for what he said he did in the correction/comment tab in the comment section ....he specifically linked it to the video you wanted....sorry...

And I think if you contact the person who did this CATMANDINKO he probably could help you out with what you need.

+3 reply
catmandinko wrote on July 28 2011, 09:20 pm
Amy Winehouse - Stronger Than Me (unplugged)
--------------------------------------------
http://www.youtube.com/watch?v=xZeQszRTojk

Gm7....... A7... Dm7..... Gm7.. A7.... Dm7.. Fmaj7
e|-VERSES-------------------------------------------------|
B|-----------5---6-6--------------5----6-66--10-----------|
G|----3------0---5-5--------3-----0----5-55---9-----------|
D|---3------5----7-7-------3-----5-----7-77--10-----------|
A|--5-------0----5-5------5------0-----5-55---8-----------|
E|-3-----4/5-------------3----4/5-------------------------|

Fmaj7........... G9.......... Fmaj7........ G9
e|-CHORUS-------------------------------------------------|
B|--10--10-10----10---10-10----10---10-10----10--10-10----|
G|---9---9--9----10---10-10-----9----9--9----10--10-10----|
D|--10--10-10-----9----9--9----10---10-10-----9---9--9----|
A|-8---8----8---10---10--10---8----8----8---10--10--10----|
E|--------------------------------------------------------|

Last edited by DON CZARSKI at Feb 24, 2014,
#8
Quote by DON CZARSKI
Ok,
But as I stated the guy in the comment section stated specifically that he tabbed it for the video you wanted.. Again, I am not saying the tab itself in the upper section... you have to go down to the comment section...so I guess the guy did not do it for what he said he did in the correction/comment tab in the comment section ....he specifically linked it to the video you wanted....sorry...

And I think if you contact the person who did this CATMANDINKO he probably could help you out with what you need.

+3 reply
catmandinko wrote on July 28 2011, 09:20 pm
Amy Winehouse - Stronger Than Me (unplugged)
--------------------------------------------
http://www.youtube.com/watch?v=xZeQszRTojk

Gm7....... A7... Dm7..... Gm7.. A7.... Dm7.. Fmaj7
e|-VERSES-------------------------------------------------|
B|-----------5---6-6--------------5----6-66--10-----------|
G|----3------0---5-5--------3-----0----5-55---9-----------|
D|---3------5----7-7-------3-----5-----7-77--10-----------|
A|--5-------0----5-5------5------0-----5-55---8-----------|
E|-3-----4/5-------------3----4/5-------------------------|

Fmaj7........... G9.......... Fmaj7........ G9
e|-CHORUS-------------------------------------------------|
B|--10--10-10----10---10-10----10---10-10----10--10-10----|
G|---9---9--9----10---10-10-----9----9--9----10--10-10----|
D|--10--10-10-----9----9--9----10---10-10-----9---9--9----|
A|-8---8----8---10---10--10---8----8----8---10--10--10----|
E|--------------------------------------------------------|




Thank you so much, I am sorry for misunderstanding you! I very much appreciate it. All the best, I am going to practice and keep you updated, if you don't mind. I am inspired by everyone on here and hope to someday play like all of you.
#9
No problem and good luck... If you get stipucki believe the guy I mentioned can help you out as he seems to be into Amy winehouse and her style of playing
#10
Have no idea how to read this, and it's not sounding accurate. Will have to mesage the creator!
#12

[font="Courier New"]Verse:
  Gm7                           A7+5        Dm7
   1  e  &  a  2  e  &  a  3  e  &  a  4  e  &  a 
e|------------------------------------------------| 
B|-3-----------3-----------------5-----------6----| 
G|-3--------3--------------------5-----------5----| 
D|-3-----x-----------------------4-----------7----| 
A|------------------------------------------(5)---| 
E|-3----(3)----------3/(4)/5----(5)---------------| 

                   (Dm7)         (Dm7)                (FMaj7)
   1  e  &  a  2  e  &  a  3  e  &  a  4  e  &  a      
e|------------------------------------------------|  -|------|
B|-------------------6-----------------6----------|  -|-(10)-|
G|-------------------5-----------------5----------|  -|-(9)--| 
D|-------------------7-----------------7----------|  -|-(10)-|
A|------------------(5)---------(5)---------------|  -|-(8)--|
E|------------------------------------------------|  -|------|


Chorus:
  Fmaj7
   1  e  &  a  2  e  &  a  3  e  &  a  4  e  &  a      
e|------------------------------------------------|
B|-10----------------10----------------10---------|
G|-9-----------------9-----------------9----------|
D|-10----------------10----------------10---------|
A|-8----------(8)---------------(8)---------------|
E|------------------------------------------------|

   G9
   1  e  &  a  2  e  &  a  3  e  &  a  4  e  &  a      
e|------------------------------------------------|
B|-10----------x-----10----------10---------------|
G|-10----------x-----10----------10---------------|
D|-9-----------x-----9-----------9----------------|
A|-10---------------------(10)--------------------|
E|------------------------------------------------|[/FONT]