#1
Hey guys, I've been playing guitar for about 6 years now, and have always wanted to learn how to play this song, but I've never been able to find adequate chords or tabs for it. From what I've found, it's in the key of E major.

I'm hoping that someone has a Doobie Brothers book around somewhere that has this great song in it.
Any input for this would be greatly appreciated.
#4
Quote by RedRumFace
I have, and it just doesn't sound right. But I'll try it again.



DON C has basically the right chords... keep trying!


    E                       
e|--0-------0--------------------0--------|- 
B|--0---------0--------------------0------|- 
G|--9-----------9--------9-----------9----|- 
D|--9-------------9---(7)9-------------9--|- 
A|--7---(7)--------------x---(7)----------|- 
E|-(0)------------------(0)---------------|- 

  Emaj7
e|-(0)------0--------------------0---------|-
B|--0---------0---------(0)--------0-------|-
G|--8----------(8)----(0)8-----------8-----|-
D|--9-------------9------9-------------9---|-
A|--7---(7)--------------x---(7)-----------|-
E|-(0)-------------------------------------|-

   Bm(7)
e|----------7----------7h9-- |-
B|------------7--------7---- |- 
G|--7----7------7------7---- |- etc...
D|--9-------------9---(9)--- |- etc...
A|--7----------------------- |-
E|-------------------------- |-
Last edited by tonibet72 at Mar 3, 2014,