#1
I am currently looking to find some one that could tab out the bass line for me for Artist: Lil' Kim Song : Drugs its sampled bass line and cannot seem to find the key its in. My band is currently doing a collabo with a local rap artist for song that is using that sample from that song. He wants to do a full behind him him for the song he wrote to it for a benefit. So if any anyone could help me out it would be greatly appreciated.
Thank you
tone757
#3
...in all seriousness... I actually have no idea (smiley face)

[font="Courier New"]

Sliding down from the 17th fret, E String\...

    1  &  2  &  3  &  4  &  |  2  &  2  &  3  &  4  &   
G|--------------------11----|--------------------------|\
D|--------------------------|--11----------------------||
A|--------------------------|--------12----9-----------||
E|--------------------------|--------------------------| \
                                                          >
G|--------------------------|--------------------------| /
D|--------------------------|--------------------------||
A|--------------------------|--------------------------||
E|--9--------9--9-----9-----|--9-----5-\--sl--(x)------|/


    1  &  2  &  3  &  4  &  |  2  &  2  &  3  &  4  &   
G|--------------------6-----|--------------------------|\
D|--------------------------|--6-----------------------||
A|--------------------------|--------7-----4-----------||
E|--------------------------|--------------------------| \
                                                          >
G|--------------------------|--------------------------| /
D|--------------------------|--------------------------||
A|--4--------4--4-----4-----|--4-----------------------||
E|--------------------------|--------4-\--sl--()-------|/[/FONT]