#1
Hello,

I'm looking for help on tabbing the repeating guitar intro to this song:

https://www.youtube.com/watch?v=2BynJ6ydLfE


I'm missing 2 chords and appreciate any other improvements or corrections you may have for the rest. Here's what i have so far:

standard tuning
G Am7 #1
-|-----2/3---------------------------x----------------x-------|
-|-----------3------------------------1---------------0-------|
-|--------------4---------------------0---------------?-------|
-|-----------------5---------2-------2----------------?-------|
-|------------------------------------0----------------?-------|
-|------------------------------------x----------------?--------|

G Am7 #2
-|-----2/3---------------------------x----------------x-------|
-|-----------3------------------------1---------------3-------|
-|--------------4---------------------0---------------?-------|
-|-----------------5---------2-------2----------------?-------|
-|------------------------------------0----------------?-------|
-|------------------------------------x----------------?--------|

I have tried so many chords and can't mimic the chord sound from the song for some reason.

Thanks,
David