#1
My skills in working out songs arn't great right now, though I can play the songs roughly can someone work out he tab for Joe Satriani's Unstoppable Momentum and Can't Go Back. Both awesome songs, they don't sound particularly hard but yh thanks if you do.
#2
Heres what I have so far for Can't Go Back:

e|-----------------------------------|-----------|
B|-----------------------------------|-6---------|
G|-8-8-6--10-10-11--5-5-3------------|---8-6-----|X4
D|-8-8-8--11-11-11--4-4-4------------|-------8---|
A|-----------------------------------|-----------|
E|-----------------------------------|-----------|

e|-----------------------------------|-----------|
B|-----------------------------------|-----------|
G|-8-8-6--10-10-11--5-5-3------------|-3---------|
D|-8-8-8--11-11-11--4-4-4------------|-3---------|
A|-----------------------------------|-----------|
E|-----------------------------------|-----------|


e|---------------------------------------------------------------------------|
B|-----1-2-4-4b---------------------1-2-4-4b--4p2----------------------------|
G|-1/3------------3b-3b-3br-3---1/3------------------------------------------|
D|---------------------------------------------------------------------------|
A|---------------------------------------------------------------------------|
E|---------------------------------------------------------------------------|

e|---------------------------------------------------------------------------|
B|-7b-7-6-4-/6-6-------------------------------------------------------------|
G|---------------------------------------------------------------------------|
D|---------------------------------------------------------------------------|
A|---------------------------------------------------------------------------|
E|---------------------------------------------------------------------------|
#3
The first thing to be aware of is that Satriani is tuned a half step down, as he is for a few of his last albums. You can of course play some stuff one fret lower in normal tuning but it won't work for everything.
Here is what I had for the intro of Can't Go Back :

eb|----------------|----------------|----------------|----------------|
Bb|5--5--3---------|7--7--8---------|------------7---|--7-----7-----7-|
Gb|4--4--4---------|7--7--7---------|6--6--4------97-|---97----97----9|7
Db|4--4--4---------|7--7--7---------|5--5--5--------9|-----9-----9----|-9
Ab|----------------|----------------|5--5--5---------|----------------|
Eb|----------------|----------------|----------------|----------------|


I think he plays the melody more with slides and use of the bar rather than with bends.

This is the main figure of Unstoppable Momentum. You will need the open strings from the half step down tuning for this one. It's in 5/4 time.

eb|--------------------|--------------------|--------------------|--------------------|
Bb|------2---------2---|------2---------2---|------4---------0---|------2---------2---|
Gb|----4---------4-----|----4---------4-----|----6---------3-----|----4---------4-----|
Db|--4---------4-------|--4---------4-------|--6---------2-------|--4---------4-------|
Ab|--------------------|--------------------|--------------------|2-------------------|
Eb|2---------2---------|2---------2---------|4---------0---------|----------2---------|
#5
I BAGS THE LEAD BREAK!! (lolz)
See also: www.ultimate-guitar.com/forum/showthread.php?t=1637109
[b][size="3"]Joe Satch - Can't Go Back (Just After The Harmonised Runs)...[/SIZE][/b]

[font="Courier New"]    1 e & a 2 e & a 3 e & a 4 e & a   1 e & a 2 e & a 3 e & a 4 e & a   
e |-------------19----------17------|---------------------------------|
B |---------17------17-\15----------|-17----------15------------------|
G |-------------------sl--------16--|-----16-\14----------16----------|
D |---------------------------------|-------sl--------14------14-\12--|
A |---------------------------------|---------------------------sl----|
E |---------------------------------|---------------------------------|

    1 e & a 2 e & a 3 e & a 4 e & a   1 e & a 2 e & a 3 e & a 4 e & a   
e |---------------------------------|---------------------------------|
B |---------------------------------|---------------------------------|
G |-14------------------------------|---------x-\-(pick)--------------|
D |---------14----------12----------|-9-------x-\(scratch)------------|
A |-----12------12-\10------10------|-------------------x-\-rake------|
E |---------------sl------------12--|-----12-\-gliss------x-\-gliss---|

    1 e & a 2 e & a 3 e & a 4 e & a   1 e & a 2 e & a 3 e & a 4 e & a   
e |---------------------------------|---------------------------------|
B |-----------------7~--------------|---------------------------------|
G |-----------------7~--------------|---------------------------------|
D |-9-------------------------------|---------9-p-7---9---------------|
A |-9-------------------------------|---------------------------------|
E |---------------------------------|---------------------------------|

    1 e & a 2 e & a 3 e & a 4 e & a   1 e & a 2 e & a 3 e & a 4 e & a   
e |---------------------------------|-------------7-------------------|
B |---------------------------------|---------7-b-(11)7-h-10--7---10-b|
G |-7-h-9-p-7-------9-------7~------|-9-------------------------------|
D |-------------9-------9-----------|---------------------------------|
A |---------------------------------|---------------------------------|
E |---------------------------------|---------------------------------|

    1 e & a 2 e & a 3 e & a 4 e & a   1 e & a 2 e & a 3 e & a 4 e & a   
e |-----7---------------------------|---------------------------------|
B |(12)-----7---10--7-------7-------|-----------------9---10--9---7---|
G |--------------------/10------10--|-9---7-------7-------------------|
D |-------------------sl------------|---------9-----------------------|
A |---------------------------------|---------------------------------|
E |---------------------------------|---------------------------------|

    1 e & a 2 e & a 3 e & a 4 e & a   1 e & a 2 e & a 3 e & a 4 e & a   
e |---------------------------------|----------------(7)----------7---|
B |---------------------------------|-----7-----------7------(7)--7---|
G |-9---7-----------7-b(9)----------|-7--(7)----------7-------7--(7)--|
D |---------9---7-----------9---7---|-------------x-------------------|
A |---------------------------------|---------9-----------------------|
E |---------------------------------|---------------------------------|

    1 e & a 2 e & a 3 e &  a 4 e & a   1 e & a 2 e & a 3 e & a 4 e & a   
e |-----------------7----------------|-7---7---7---7---------------14-b|
B |-------------------7-10-7---------|-7---7---7---7-----------12------|
G 7h9--b--(11)---------------9-b(11)-|-----------------9-/-------------|
D |----------------------------------|------------------sl-------------|
A |----------------------------------|---------------------------------|
E |----------------------------------|---------------------------------|

    1 e & a 2 e & a 3 e & a 4 e & a   1 e & a 2 e & a 3 e & a 4 e & a   
e |(17)-----14--13--12--------------|---------------------------------|
B |-------------------------15--12--|---------7-----------------------|
G |---------------------------------|-14----------9---7---------------|
D |---------------------------------|---------------------9---7---9---|
A |---------------------------------|---------------------------------|
E |---------------------------------|---------------------------------|

    1 e & a  2 e & a 3 e & a 4 e & a  1 e & a 2 e & a 3 e & a 4 e & a   
e |---------------------------------|---------------------------------|
B |-9-b(10)r-b-r-b-r-7-----------10-|---------------------------------|
G |----------------------9---7------|-7--7----9-------7-\-6-------6-\-|
D |---------------------------------|------------------sl-----9----sl-|
A |---------------------------------|---------------------------------|
E |---------------------------------|---------------------------------|

    1 e & a 2 e & a 3 e & a 4 e & a   1 e & a 2 e & a 3 e & a 4 e & a   
e |---------------------------------|---------------------------------|
B |---------------------------------|---------------------------------|
G |-4-------------------------------|---------------------------------|
D |---------9-------7-\-4-----------|---------------------------------|
A |-------------9----sl-----5-h-7---|--sl-----------------------------|
E |---------------------------------|-5-/-7~~-------------------------|

    1 e & a 2 e & a 3 e & a 4 e & a   1 e & a 2 e & a 3 e & a 4 e & a   
e |---------------------------------|---------------------------------|
B |-------------------------(0)-----|(0)---------(0)---------(0)------|
G |-----------------/gliss--(14)----|(14)--------(14)--------(14)-----|
D |------(x)-p-(0)----------(16)----|(16)--------(16)--------(16)-----|
A |------(x)-p-(0)-/--------(0)-----|(0)---------(0)---------(0)------|
E |(x)-/----------------------------|---------------------------------|
[color="Lime"]Note: Chords indicate when to "pulse" (depress) Whammy Bar.[/COLOR]
    1 e & a 2 e & a 3 e & a 4 e & a   1 e & a 2 e & a 3 e & a 4 e & a   
e |----(0)---------<12>-Harm----<12>|-~~~~~~~~~~~~~~~~~~~~~~~~~~~(0)--|
B |----(0)---------<12>-Harm----<12>|-~~~~~~~~~~~~~~~~~~~~~~~~~~~(0)--|
G |----(14)--------(13)---------(13)|-~~~~~~~~~~~~~~~~~~~~~~~~~~~(13)\|
D |----(16)--------(14)---------(14)|-~~~~~~~~~~~~~~~~~~~~~~~~~~~(14)\|
A |----(0)---------(0)----------(0)-|-~~~~~~~~~~~~~~~~~~~~~~~~~~~(0)--|
E |---------------------------------|---------------------------------|

[color="Red"]Note: Timing Change to triplets. : But The Count Remains In Fours.[/COLOR]
    1  &  a  2  &  a  3  &  a  4  &  a    1  &  a  2  &  a  3  &  a  4  &  a
e |-------------------10-12-14-12-10----|-------------------------------------|
B |----------10-12-14----------------14-|-10-12-14-12-10----------------------|
G |-10-/--13----------------------------|----------------13-14-13-11-9--11-13-|
D |---sl--------------------------------|-------------------------------------|
A |-------------------------------------|-------------------------------------|
E |-------------------------------------|-------------------------------------|
[color="Red"]Note: These 4 Bars are executed with both Hammer-On & Pull-Offs[/COLOR]
    1  &  a  2  &  a  3  &  a  4  &  a    1  &  a  2  &  a  3  &  a  4  &  a
e |-------------------------------------|-------------------------------------|
B |-------------------------------------|-------------------------------------|
G |-11-9--11-9--7-\6--7--6-----6--------|-------------------------------------|
D |--------------sl---------9-----9--7--|-6~~---------------------------------|
A |-------------------------------------|-------------------------------------|
E |-------------------------------------|-------------------------------------|

[color="Red"]Note: Timing Now Goes Back To Fours.[/COLOR]
    1 e & a 2 e & a 3 e & a 4 e & a   1 e & a 2 e & a 3 e & a 4 e & a   
e |---------5-h-7-----------5-------|-4-h5p4-\2-------2---------------|
B |-----0-------------------0-------|(0)--------------0---------------|
G |-4-------------------------------|-----------------4---------------|
D |---------------------------------|---------------------------------|
A |---------------------------------|---------------------------------|
E |---------------------------------|---------------------------------|

    1 e & a 2 e & a 3 e & a 4 e & a   1 e & a 2 e & a 3 e & a 4 e & a   
e |----(0)--------------0-----------|---------------------------------|
B |-0-h-5---------------3-----------|-2h3p2p-0--------0---------------|
G |-4-------------------4-----------|-4---------------4---------------|
D |---------------------------------|---------------------------------|
A |---------------------------------|---------------------------------|
E |---------------------------------|---------------------------------|

    1 e & a 2 e & a 3 e & a 4 e & a   1 e & a 2 e & a 3 e & a 4 e & a   
e |-5-------7-------9-------10------|-9h10p9p7--------7---------------|
B |-0------(0)------0-------(0)-----|-0---------------0---------------|
G |---------------------------------|---------------------------------|
D |---------------------------------|---------------------------------|
A |---------------------------------|---------------------------------|
E |---------------------------------|---------------------------------|

    1 e & a 2 e & a 3 e & a 4 e & a   1 e & a 2 e & a 3 e & a 4 e & a   
e |-------------7-/-22--------------|-22-23-22-Trill~~~~~~~~~~~~~-----|
B |-------------0-/-0---------------|---------------------------------|
G |--------------sl-----------------|---------------------------------|
D |---------------------------------|---------------------------------|
A |---------------------------------|---------------------------------|
E |---------------------------------|---------------------------------|[/FONT]
NB: we should collaborate the tab??
Last edited by tonibet72 at Mar 13, 2014,