#2
Quote by nasserliverpool
I was watching someone cover Lullaby of Birdland and my chord ID skills aren't the best. Was wondering if anyone could tell me the chords that were being playing behind the solo. Thanks

http://www.youtube.com/watch?v=4xXD_EkBBsU&hd=1

There's the 1st half...
Come on jazzo's, someone else help finish it!
Surely someone here knows the song?

(sorry mate, i'm not really_ a jazzo...)


[font="Courier New"]  Am7  F#7b5 Bm7b5 E7
e|---------------------|-
B|-5--5--1--1--3--3--5-|-
G|-5--5--3--3--2--2--7-|-
D|-5--5--2--2--3--3--6-|-
A|-x--x--x--x--2--2--7-|-
E|-5--5--2--2----------|-
  Progression: 1.

   Am7  F#7b5  Dm7  G13
e|---------------------|-
B|-5--5--1--1--6--6--5-|-
G|-5--5--3--3--5--5--4-|-
D|-5--5--2--2--3--3--3-|-
A|-x--x--x--x--5--5--x-|-
E|-5--5--2--2--------3-|-
  Progression: 2.

  Cmaj7  Am7   Dm7   G13
e|------------------------|-
B|-5--5--5--5--6--6--5--5-|-
G|-4--4--5--5--5--5--4--4-|-
D|-5--5--5--5--3--3--3--3-|-
A|-3--3--------5--5-------|-
E|-------5--5--------3--3-|-
  Progression: 3.

   CMaj7       Dm7   G13
e|------------------------|-
B|-5--5--5--5--6--6--5--5-|-
G|-4--4--4--4--5--5--4--4-|-
D|-5--5--5--5--7--3--3--3-|-
A|-3--3--3--3--5--5-------|-
E|-------------------3--3-|-
  Progression: 4.

 :Progression: 1.

 :Progression: 2.

 :Progression: 3.

 CMaj7   C9    Am7   D9
e|---   ------------------
B|-5-   -3--3--5--5--6--6-
G|-4- X -3--3--5--5--5--5-
D|-5- 8 -2--2--5--5--4--4-
A|-3-   -3--3--------5--5-
E|---   -------5--5-------
  Progression: 5.

   Dm7   G7    Cmaj7
e|-----------------------|-
B|-6--6--0--0--5--5--5-5-|-
G|-5--5--4--4--4--4--4-4-|-
D|-3--3--3--3--5--5--5-5-|-
A|-5--5--5--5--3--3--3-3-|-
E|-------3--3------------|-
  Progression: 6.

  Em7b5  A7+5   Dm7
e|------------------------|-
B|-8--8--6--6--6--6--6--6-|-
G|-7--7--6--6--5--5--5--5-|-
D|-8--8--5--5--3--3--3--3-|-
A|-7--7--------5--5--5--5-|-
E|-------5--5-------------|-
  Progression: 7.

  Dm7b5  G7+5  Cmaj7      E13
e|------------------|-  -|-9-|-
B|-6--6--4--4--5--5-|-  -|-9-|-
G|-5--5--4--4--4--4-|-  -|-7-|-
D|-6--6--3--3--5--5-|-  -|-6-|-
A|-5--5--------3--3-|-  -|-7-|-
E|-------3--3-------|-  -|---|-[/FONT]
Last edited by tonibet72 at Mar 9, 2014,