#2
Is this what you are asking for....
I had to put it in two parts since it was too long for me to put it all here in one ...




PART 1

ANOTHER NAIL IN MY HEART
As recorded by Squeeze
(From the 1981 Album ARGYBARGY)

Gtr  (E A D G B E) - 'Lead'
Bass (E A D G)

Intro
    E E E E E E E E   E E E E E E E E
||------------------|------------------||
||o-----------------|-----------------o||
||------------------|------------------||
||--2-1-----1-------|-2-1-----1--------||
||o-----4-2---4-2-1-|-----4-2---4-2-1-o||
||------------------|------------------||

    E E E E E E E E   E E E E E E E E
||--6-4-3---4-3-----|-6-4-3---4-3------||
||o-------6-----6-4-|-------6-----6-4-o||
||o-----------------|-----------------o||
||------------------|------------------||


Verse
  B                 F#/A#             F#m
  E E E E E E E E   E E E E E E E E   E E E E E E E E   E E E E E E E E
|-----------------|-----------------|-----------------|------------------|
|-----------------|-----------------|-----------------|------------------|
|-----------------|-----------------|-----------------|-2-1-----1--------|
|-4-4-4-4-4-4-4-4-|-4-4-4-4-4-4-4-4-|-----------------|-----4-2---4-2-1--|
|-2-2-2-2-2-2-2-2-|-1-1-1-1-1-1-1-1-|-4-4-4-4-4-4-4-4-|------------------|
|-----------------|-----------------|-2-2-2-2-2-2-2-2-|------------------|

  E E E E E E E E   E E E E E E E E   E E E E E E E E   E E E E E E E E
|-----------------|-----------------|-----------------|-----------------|
|-----------------|-----------------|-4-4-4-4-4-4-4-4-|-4-2-1---2-1-----|
|-2-2-2-2-2-2-2-2-|-1-1-1-1-1-1-1-1-|-----------------|-------4-----4-2-|
|-----------------|-----------------|-----------------|-----------------|


  E                 G#                A                 F#/A#
  E E E E E E E E   E E E E E E E E   E E E E E E E E   E E E E E E E E
|-----------------|-----------------|-----------------|------------------|
|-----------------|-----------------|-----------------|------------------|
|-4-4-4-4-4-4-4-4-|-----------------|-----------------|------------------|
|-2-2-2-2-2-2-2-2-|-----------------|-2-2-2-2-2-2-2-2-|-4-4-4-4-4-4-4-4--|
|-----------------|-6-6-6-6-6-6-6-6-|-0-0-0-0-0-0-0-0-|-1-1-1-1-1-1-1-1--|
|-----------------|-4-4-4-4-4-4-4-4-|-----------------|------------------|

  E E E E E E E E   E E E E E E E E   E E E E E E E E   E E E E E E E E
|-----------------|-----------------|-----------------|-----------------|
|-----------------|-----------------|-----------------|-----------------|
|-----------------|-----------------|-0-0-0-0-0-0-0-0-|-1-1-1-1-1-1-1-1-|
|-0-0-0-0-0-0-2-3-|-4-4-4-4-4-4-4-4-|-----------------|-----------------|


  B                 F#/A#             F#m
  E E E E E E E E   E E E E E E E E   E E E E E E E E   E E E E E E E E
|-----------------|-----------------|-----------------|------------------|
|-----------------|-----------------|-----------------|------------------|
|-----------------|-----------------|-----------------|-2-1-----1--------|
|-4-4-4-4-4-4-4-4-|-4-4-4-4-4-4-4-4-|-----------------|-----4-2---4-2-1--|
|-2-2-2-2-2-2-2-2-|-1-1-1-1-1-1-1-1-|-4-4-4-4-4-4-4-4-|------------------|
|-----------------|-----------------|-2-2-2-2-2-2-2-2-|------------------|

  E E E E E E E E   E E E E E E E E   E E E E E E E E   E E E E E E E E
|-----------------|-----------------|-----------------|-----------------|
|-----------------|-----------------|-4-4-4-4-4-4-4-4-|-4-2-1---2-1-----|
|-2-2-2-2-2-2-2-2-|-1-1-1-1-1-1-1-1-|-----------------|-------4-----4-2-|
|-----------------|-----------------|-----------------|-----------------|


  E                 G#                A                 F#/A#   G#/C
  E E E E E E E E   E E E E E E E E   E E E E E E E E   E E E E E E E E
|-----------------|-----------------|-----------------|------------------|
|-----------------|-----------------|-----------------|------------------|
|-4-4-4-4-4-4-4-4-|-----------------|-----------------|------------------|
|-2-2-2-2-2-2-2-2-|-----------------|-2-2-2-2-2-2-2-2-|-4-4-4-4-6-6-6-6--|
|-----------------|-6-6-6-6-6-6-6-6-|-0-0-0-0-0-0-0-0-|-1-1-1-1-3-3-3-3--|
|-----------------|-4-4-4-4-4-4-4-4-|-----------------|------------------|

  E E E E E E E E   E E E E E E E E   E E E E E E E E   E E E E E E E E
|-----------------|-----------------|-----------------|-----------------|
|-----------------|-----------------|-----------------|-----------------|
|-----------------|-----------------|-0-0-0-0-0-0-0-0-|-1-1-1-1-3-3-3-3-|
|-0-0-0-0-0-0-2-3-|-4-4-4-4-4-4-4-4-|-----------------|-----------------|


 Pre-Chorus
  C#m                 A                  E                 B
  E E E E S S E E E   E E E E S S E Q    E E E E E E E E   E E E E E E E E
|-------------------|------------------|-----------------|------------------|
|-------------------|------------------|-----------------|------------------|
|-------------------|------------------|-----------------|------------------|
|-6-6-6-6-6---6-6---|------------------|-9-9-9-9-9-9-9-9-|------------------|
|-4-4-4-4-4---4-4---|-7-7-7-7-7---7-7--|-7-7-7-7-7-7-7-7-|-9-9-9-9-9-9-9-9--|
|-----------------5-|-5-5-5-5-5---5-5--|-----------------|-7-7-7-7-7-7-7-7--|

  Q E  E Q  Q    Q E  E Q  Q    Q E  E Q  Q    Q E  E Q  Q
|--------------|--------------|--------------|--------------|
|--------------|--------------|-2----2-2-----|--------------|
|-4----4-4-----|-0----0-0-----|--------------|-2----2-2-----|
|--------------|--------------|--------------|--------------|


 Chorus
  E                   B                   A                 E
  E E  E E E E  E E   E E  E E E E  E E   E E E E E E E E   E E  E E E E  E E
|-------------------|-------------------|-----------------|--------------------|
|-------------------|-------------------|-----------------|--------------------|
|-------------------|-------------------|-----------------|--------------------|
|-9---11---9---11---|-------------------|-----------------|-9---11---9---11----|
|-7-7--7-7-7-7--7-7-|-9---11---9---11---|-7---9---7---9---|-7-7--7-7-7-7--7-7--|
|-------------------|-7-7--7-7-7-7--7-7-|-5-5-5-5-5-5-5-5-|--------------------|

  E E E E E E E E   E E E E E E E E   E E E E E E E E   E E E E E E E E
|-----------------|-----------------|-----------------|-----------------|
|-2-2-------------|-----6-6-4-4-6-6-|-7-7-4-4-2-2-4-4-|-2-2-------------|
|-----4-4-2-2-4-4-|-2-2-------------|-----------------|-----4-4-2-2-4-4-|
|-----------------|-----------------|-----------------|-----------------|


  E                   B                   A       B         C#m
  E E  E E E E  E E   E E  E E E E  E E   E E E E E E E E   H    H
|-------------------|-------------------|-----------------|-----------|
|-------------------|-------------------|-----------------|-5----5----|
|-------------------|-------------------|-----------------|-6----6----|
|-9---11---9---11---|-------------------|-----------------|-6----6----|
|-7-7--7-7-7-7--7-7-|-9---11---9---11---|-7-7-7-7-9-9-9-9-|-4----4----|
|-------------------|-7-7--7-7-7-7--7-7-|-5-5-5-5-7-7-7-7-|-----------|

  E E E E E E E E   E E E E E E E E   E E E E E E E E   H    H
|-----------------|-----------------|-----------------|-----------|
|-2-2-------------|-----6-6-4-4-6-6-|-----------------|-----------|
|-----4-4-2-2-4-4-|-2-2-------------|-0-0-0-0-2-2-2-2-|-4----2----|
|-----------------|-----------------|-----------------|-----------|


 Solo Over Verse
  B                     F#/A#
  E  E E E E E E    E   +E  E E H    E
|---------------------|----------------|
|---------------------|--------------7s|
|--------------6b8==6r|=(6)-4----------|
|------4---4h6--------|-------6-4------|
|-2-/6---6------------|----------------|
|---------------------|----------------|

  E E E E E E E E   E E E E E E E E
|-----------------|-----------------|
|-----------------|-----------------|
|-2-2-2-2-2-2-2-2-|-1-1-1-1-1-1-1-1-|
|-----------------|-----------------|


  F#m
  E E  E   Q  E E   E    +S  S E E E E E E E
|------7--------------|----------------------|
|-9S7-(7)-/9--7---/10-|-(10)---9-7---9p7-----|
|---------------------|------------9-----9p8-|
|---------------------|----------------------|
|---------------------|----------------------|
|---------------------|----------------------|

  E E E E E E E E   E E E E E E E E
|-----------------|-----------------|
|-4-4-4-4-4-4-4-4-|-4-2-1---2-1-----|
|-----------------|-------4-----4-2-|
|-----------------|-----------------|


  E                                G#
  E   E  E  E  T  E  +T   E S  E    E  E  E   S  S  E  Q   S  S
|--------------------------------|----11-13-(13)-----------------|
|-------12----12-14-(14)-12---12h|=13--------11h12p11------------|
|-9-/13----13--------------------|--------------------13--11h12p=|
|--------------------------------|-------------------------------|
|--------------------------------|-------------------------------|
|--------------------------------|-------------------------------|

  E E E E E E E E   E E E E E E E E
|-----------------|-----------------|
|-----------------|-----------------|
|-----------------|-----------------|
|-0-0-0-0-0-0-2-3-|-4-4-4-4-4-4-4-4-|

  
Last edited by DON CZARSKI at Apr 1, 2014,
#3
PART 2


  Barre @ 9th
  A                                           F#/A#
   S  S  S S  S S  S S S  S S  S  S S  S  S   S S S S S  S E  S S E E E
|-------------------------------------------|---------------------------|
|-------------------------------------------|---------------------------|
|-11\-9-11p9-11p9------9--------------------|---------------------------|
|-----------------11p9---11p9----11p9-------|--------------9------------|
|-----------------------------11------11p10p|=9s7-9-7-9s11---11s9-7-----|
|-------------------------------------------|-----------------------9-7-|

  E E E E E E E E   E E E E E E E E
|-----------------|-----------------|
|-----------------|-----------------|
|-0-0-0-0-0-0-0-0-|-1-1-1-1-1-1-1-1-|
|-----------------|-----------------|


  B                           F#/A#
    E E  E E   E  E  E  S S    E    S  E    S  E     +E   E E  E
|---------------------------|---------------------------------16-|
|----------------------12---|-14b16---14b16---14b16r(14)-12------|
|----------------11h13------|------------------------------------|
|----------9-/13------------|------------------------------------|
|-----9h11------------------|------------------------------------|
|-/11-----------------------|------------------------------------|

  E E E E E E E E   E E E E E E E E
|-----------------|-----------------|
|-----------------|-----------------|
|-2-2-2-2-2-2-2-2-|-1-1-1-1-1-1-1-1-|
|-----------------|-----------------|


  F#m
   +E   E  E  Q   E. S  S  S    E  E  S  S  E  E  E  E  E
|-(16)----19-16--------19p16-|-----------------------------|
|------19--------19----------|-19-16-----------------------|
|----------------------------|-------19p18-16-18-16--------|
|----------------------------|----------------------18-16--|
|----------------------------|-----------------------------|
|----------------------------|-----------------------------|

  E E E E E E E E   E E E E E E E E
|-----------------|-----------------|
|-4-4-4-4-4-4-4-4-|-4-2-1---2-1-----|
|-----------------|-------4-----4-2-|
|-----------------|-----------------|

  E                           G#
   E   E  E  E  E.  E  S  E   E  E   E  E    E S E S E
|---------------------------|----8------9--/11---8-----|
|--------------17-----------|--------------------------|
|--------16--------18\---/8-|-8-(8)-/9-(9)-/11---8---9-|
|-14-/18----18--------------|--------------------------|
|---------------------------|--------------------------|
|---------------------------|--------------------------|

  E E E E E E E E   E E E E E E E E
|-----------------|-----------------|
|-----------------|-----------------|
|-----------------|-----------------|
|-0-0-0-0-0-0-2-3-|-4-4-4-4-4-4-4-4-|


  A                             F#/A#     G#/C
  +E   E    E   E    E S E E.    E  Q   E  E  Q   S S
|------9-------11--/12---9----|-----6---------8---8----|
|-----------------------------|------------------------|
|-(9)-(9)-/11-(11)-/13---9----|-/6-(6)--6-/8-(8)--8----|
|-----------------------------|------------------------|
|-----------------------------|------------------------|
|-----------------------------|------------------------|

  E E E E E E E E   E E E E E E E E
|-----------------|-----------------|
|-----------------|-----------------|
|-0-0-0-0-0-0-0-0-|-1-1-1-1-3-3-3-3-|
|-----------------|-----------------|


  C#m
  Q   H.
|-9\--------|
|-----------|
|-9\--------|
|-----------|
|-----------|
|-----------|

  Q  E E Q  Q
|----------------|
|----------------|
|-4----4-4-------|
|----------------|
Last edited by DON CZARSKI at Apr 1, 2014,
#4
At the bottom of the page on the right hand side it says print. Look to the right of the comments area. That is what I do to print them.
#5
Hi Don, thanks for that.
What I need is a txt file or midi so I can import it into guitar pro.
Did you do a snip on that or were you able to download it?

Thanks mate,
Mike
#6
Ah, got it jthabcd.

So I saved it as a text file then imported it as asci but it's all wrong.
Is there another way of doing this?

Thanks,
Mike
#8
Text importing is really bad and glitchy, - as you probably found out it can't read durations and rests accurately and generally just screws up everything
You're better off asking the original tabber if he has a GP of it - or just doing it manually. Tab pro doesn't read text tabs either, if there's an ad for it to play in TP it's BS.
#9
Yeah, it's just come into GP as garbage.
Suppose I'd better learn the track by ear...