#1
Hey guys! This is quite literally my first post on any website... ever, and I am hoping to get some help on tabbing this loop out. My ears are not good and I have been having trouble:

http://youtu.be/0YowovI2LkE

All I know for sure is that the key is D#. Again, I would really appreciate it if somebody could give me an idea (fingers crossed for some tablature) of the notes for this loop. In advance I really appreciate all the feedback! Please forgive me if I have posted in the wrong section - I am a noob in every sense of the word, please have mercy.


Thanks bros!
#2
This is what I got from a first attempt...seems like tuning is C (Standard E 2 tones down)..hope it helps


C ||------------------------------------|----------------------------------|
G ||------------------------------------|----------------------------------|
D#||*--------0------------------------|-------0-------------------------|
A#||*-----------2p--0--2p--0h--2--|-----------2p--0--2p--0h--2--|
F ||------2----------------------------|-----2----------------------------|
C ||---0-------------------------------|--0-------------------------------|

-----------------------------------|----------------------------|
-----------------------------------|----------------------------|
--------0-------------------------|--------2--------2---------|
-----------2p--0--2p--0h--2---|-----2--------2--------2--|
-----2----------------------------|--0--------0--------0-----|
--0-------------------------------|----------------------------|


----------------------------------|----------------------------------|
----------------------------------|----------------------------------|
--------0------------------------|--------0-------------------------|
-----------2p--0--2p--0h--2--|-----------2p--0--2p--0h--2--|
-----2---------------------------|-----2----------------------------|
--0------------------------------|--0------------------------------|


----------------------------|-----------------------------||
----------------------------|-----------------------------||
--------2--------2---------|--------2--------2--------*||
-----2--------2--------2--|-----2--------2--------2--*||
--0--------0--------0-----|--3--------3--------3------||
----------------------------|-----------------------------||
Last edited by Phoebio at Apr 4, 2014,
#4
Tuning: C-F-A#-D#-G-C

e ||------------------------|- -|------------------------|- -|------------------------|| 
B ||------------------------|- -|------------------------|- -|------------------------|| 
G ||------------------------|- -|-------2--------2-------|- -|-------2--------2-------|| 
D ||-------5--2--0----------|- -|----2--------2--------2-|- -|----2--------2--------2-|| 
A ||----2-----------7-----7-|- -|-0-------(0)------(0)---|- -|-3--------3--------3----||
E ||-0-----------------3----|- -|------------------------|- -|------------------------|| 
Probably more suited to TAB talk Forum >https://www.ultimate-guitar.com/forum/forumdisplay.php?f=10<... maybe?