#2
   Albeit I worked it out on guitar
    
G |-----------|-----9-------------|-----9-----9-----|---10------10-|---10------10---|-
D |-2-------3-|-------9---------3-|-------9-----9---|------10------|------10--------|-
A |-----------|---7-----7---------|---7-----7-----7-/-8-------8----|-8-------8----8-|-
E |---0-0-1---|-0---------0-0-1---|-0---------------sl-------------|----------------|-

G |-10-\-9---9-9---9-----------|-----4-4---------|-------9-----9---|-
D |----sl--------------------3-|-----------------|----h----9-----9-|-
A |--------7-----7---7---------|-----2-2-7-----3-|--(x)7-----7-----|-
E |--------------------0-0-1---|-0-0-------0-1---|-0---------------|-

G |---------10--------10--------------|---9-----9-------|-----9-------------|-
D |--------------10--------10--h------|-----9---9-------|-------9---------3-|-
A |-7-/-8-8----8----8----8----8-10--8-|-7-----7-------3-|-7-------7---------|-
E |-----------------------------------|-----------0-1---|---0-------0-0-1---|-

G |-----9---------9-9-9-|---------10------10-|------10------10---\-\-\-(x)-|-
D |---------------------|------------10------|--(10)--10------10-\-\-\-(x)-|-
A |---7---7--Harm-------|-7-/-8-8-------8----|-8----------8------gliss-----|-
E |-0-------<7>---------|---sl---------------|-----------------------------|-

G |----------9-----------------------||
D |----h----------9------------------||
A |-(x)-7-------------gliss-----(7)--||
E |-----------------1-/-----(x)--0---||
#4
Hey.

Probably should have asked a lot earlier, and I don't want to open a new thread; can anyone do the bass intro played in this video too?

http://www.youtube.com/watch?v=2Gtf5-PjqRg

I know it's basically the bassline of the interlude of To Live is to Die, but it's still different enough that I can't figure it out.

Thanks!