#1
this record is amazing. its been out for a little over 3 weeks and im surprised no one has posted anything from it. It would be totally awesome if someone could do a full tab.
#2
Guitar1.
      1  e  &  a  2  e  &  a  3  e  &  a  4  e  &  a  |  1  e  &  a  2  e  &  a  3  e  &  a  4  e  &  a  
eb |----------sl--------5-----------------------------|--10-8--------------------------------------------|-
Bb |--3----(x)/6--------------------------------------|--------10-8--------8--------10-------6--5--------|-
Gb |--------------------------------------------------|--------------11-9--------------------------7-----|-
Db |--------------------------------------------------|--------------------------------------------------|-
Ab |--------------------------------------------------|--------------------------------------------------|-
Db |--------------------------------------------------|--------------------------------------------------|-
   |                                                  |                                                  |
Guitar 2.                                             |                                                  |
   |  1  e  &  a  2  e  &  a  3  e  &  a  4  e  &  a  |  1  e  &  a  2  e  &  a  3  e  &  a  4  e  &  a  |
eb |--------------------------------------------------|--------------------------------------------------|-
Bb |--------------------------------------------------|--10-8--------------5--------6--------------------|-
Gb |----------sl--------7-----------------------------|--------10-9--7--5--------------------7--5--------|-
Db |--7----(5)/8--------------------------------------|--------------------------------------------7-----|-
Ab |--------------------------------------------------|--------------------------------------------------|-
Db |--------------------------------------------------|--------------------------------------------------|-
   |                                                  |                                                  |
Guitar 3.                                             |                                                  |
   |  1  e  &  a  2  e  &  a  3  e  &  a  4  e  &  a  |  1  e  &  a  2  e  &  a  3  e  &  a  4  e  &  a  |
eb |--------------------------------------------------|--------------------------------------------------|-
Bb |---h--p-p-----------------------------------------|--------------------------------------------------|-
Gb |--2--3-2-0--p--p----------------0-----------------|-----------0-----------------0---------p---p------|-
Db |-----------3--2--0--------------------------------|--------------------------------------3--2--0-----|-
Ab |--------------------1-----------------------------|--2-----------------3-----------------------------|-
Db |--------------------------------------------------|--------------------------------------------------|-
Haha I wouldn't worry... I'm sure people are working on it?!!
Last edited by tonibet72 at May 16, 2014,