#1
Hi guys, I'd really like to learn how to play this song.
I've tried figuring it out myself, but that's not going too well (I'm only a beginner).
Please help me out if you can, thanks in advance!
#2
Hey man, here's what I can hear:


capo on the 8th fret

[B]Intro/Verse[/B]

   A     A     G    G         G 
E|---------------------------------------
A|---------------------------------------
D|----------------------------------------
G|-0h2---0h2-0------0---0------0---0------
B|-0-----0-----2----2-2-2-2----2-2-2-2-----
e|-------------3------3---3------3---3-----


[B]Chorus[/B]

   A         Em        G  A      G
E|----------------------------------------
A|----------------------------------------
D|----2------------------------------------
G|-2--2-2-2-------2-------0h2-0--------0-----
B|-0--0-0-0--2--2-2-2--2---------2---2-2------
e|-----------0--0-0-0--3---------3---3-3----


[B]Bridge[/B] (very short piano part, just before the last chorus)

G  A  C  C


EDIT: Also, what a great band! Haven't heard them before but they sound pretty awesome.
Last edited by Seany at May 9, 2014,
#3
Quote by Seany
Hey man, here's what I can hear:


capo on the 8th fret

[B]Intro/Verse[/B]

A A G G G
E|---------------------------------------
A|---------------------------------------
D|----------------------------------------
G|-0h2---0h2-0------0---0------0---0------
B|-0-----0-----2----2-2-2-2----2-2-2-2-----
e|-------------3------3---3------3---3-----


[B]Chorus[/B]

A Em G A G
E|----------------------------------------
A|----------------------------------------
D|----2------------------------------------
G|-2--2-2-2-------2-------0h2-0--------0-----
B|-0--0-0-0--2--2-2-2--2---------2---2-2------
e|-----------0--0-0-0--3---------3---3-3----


[B]Bridge[/B] (very short piano part, just before the last chorus)

G A C C


EDIT: Also, what a great band! Haven't heard them before but they sound pretty awesome.


Sorry for the late reply, but thanks a lot!
I discovered them through the radio, with their song "just one day".
Had a feeling I might like them so I listened to the album, it's a great band!

EDIT: Listening to their other songs and checking out the tabs that are already online, I came up with something. I noticed a couple songs have a capo on the 3rd fret. So I was just trying something out here and came up with something like this.
Still has a lot of missing parts though, but it sounds pretty 'okay' to me (excuse me for maybe not knowing the exact chords, I hope it's clear):

CAPO on the 3rd fret

[B]Intro/Verse[/B]

     Fmaj7             C
E|-(0)---------------------------------------
A|--1---------------1------------------------
D|-----0h2--------------------------------
G|-----------3--------2--------------------
B|-----------------------3-------------------
e|------------------------------------------

[B]Bridge[/B]

     C/G                 C         D         C
E|-----------------------------2-----------------
A|--1-------------1--------------3----1--------
D|-----------------------------2-----------------
G|------2-----------2--------------------2------
B|---------3-------------3------------------3---
e|---------3-------------------------------------


[B]Chorus[/B]

      G               Am      F            C
E|-------3-------------------------------------
A|----------------1-------1----------1----------
D|------------------2-------2-------------------
G|------------------2---------3--------2--------
B|-----2----------------------3----------3------
e|--------3--------------------------------------

[B]Verse[/B] 

[B]"Extended bridge (with the short piano part)[/B]

     C/G            C            D         C      Asus4(add9)  Fmaj7              C
E|-----------------------------2----------------------------------------------------------
A|--1-------------1--------------3----1-----------3----------1--------1--------1------
D|-----------------------------2-----------------2---------------0--------2-------------
G|------2-----------2--------------------2------------------------3---------3-----2----
B|---------3-------------3------------------3---2------------------------------------3-- 
e|---------3------------------------------------------------------------------------------

[B]Chorus[/B] 



Let me know what you think. (The extended bridge part was a tough part to figure out )
Last edited by DarrGuitar at Jun 5, 2014,
#4
Check out my Tab for the song, should solve your problems.
And rate if you like it.