#1
I've started listening to a band called Arkham Witch that I really like so I wanted to learn their songs. After not being able to find any I took the opportunity to train my ear so I could tab my own songs. So far I am only comfortable that I have one riff right, if anyone could have a look and verify it for me that'd be awesome. I'd like to know that I am on the right track before doing the rest of the song. You can find the song here:https://www.youtube.com/watch?v=xmwSAUWOWwg

The tab I have so far is:

Riff 1 x4

e--------------------------------------------------|
B--------------------------------------------------|
G--------------------------------------------------|
D------------------------------9---------------4-----|
A--------------2---7-7-7-7-7\---2-2-2-2-2-----|
E---0-0-0-0-0-----------------------------------|

Also if this is in the wrong forum, sorry I couldn't decide where it should be posted.
Last edited by ThrashingDeath at May 11, 2014,
#2
E||-----------------------------------|-----------------------||
B||-----------------------------------|-----------------------||
G||-----------------------------------|-----------------------||
D||----------------------------10----|-------------4------------||
A||------------2----8-8-8-8--8-----|--2-2-2-2-2------------||
E||--0-0-0-0-0----------------------|-----------------------||

Change the 2nd part up a fret. If you really want to flesh the tab out then note that this is the left speaker guitar's part. Right speaker is playing the chords open without the pedal:

E||------------------------------------------|-----------------------||
B||------------------------------------------|-----------------------||
G||------------------------------------------|-----------------------||
D||------------------10-10-10-10-10----|--4-4-4-4-4------------||
A||--2-2-2-2-2-----8--8---8---8---8----|--2-2-2-2-2------------||
E||--0-0-0-0-0----------------------------|-----------------------||

Also, good choice for your first transcription.
#3
These are the first two riffs, hope that'll get you further with the song! Try and slow it down in audacity or something like that and panning it to one side to isolate one guitar a bit better. Killer band by the way, cheers \m/

e--------------------------------------------------|
B--------------------------------------------------|
G--------------------------------------------------|
D----------------------10------------4-------------|
A-----------2---8-8-8-8-8\---2-2-2-2-2-------------|
E---0-0-0-0-0--------------------------------------|


e--------------------------------------------------|
B--------------------------------------------------|
G--------------------------------------------------|
D--------------------------------------------------|
A-7p5------7p5------------------0-2-3--------------|
E------0-0------0-0-0-----2-3----------------------|
#4
Thanks so much for your help guys. Kind of embarrassing that I got that second bit wrong haha. Also thanks for the second riff. When I have the whole song done I'll upload it on the site. Cheers
Last edited by ThrashingDeath at May 11, 2014,