#1
Hey, If someone could please post the tabs/chords for $ting by The Neighbourhood on the site that would be amazing thanks!
#2
Chord List
Am: x-0-2-2-1-0  
Dm: x-x-0-2-3-1
F:  1-3-3-2-1-1
G:  3-2-0-0-0-3
C:  x-3-2-0-1-0


"$ting"
  
              Am
I tried to be someone
                                 Dm
I lied to be someone else... for you
              Am
If I had done something a little bit differently
            Dm
We would've moved in a better direction than this, baby

Am - F - Am -F

            Am
If you were human
If you were who I assumed you were
                  Dm
You wouldn't have done this
                 Am
I thought I did something
But she would do anything
   Dm
To bring me down
She brought me down

Am - F - Am - F  

Am - G - Dm - C(G) - Interlude Chords
[size="1"]Interlude: (These chords can be used for rest of song)
   Am                                  G
   U   D U D         D   D U D U       U   D U D         D   D U D U
   1   2 & 3   4     1   2 & 3 & 4 &   1   2 & 3   4     1   2 & 3 & 4 &  
e|-------0-0-------|-1---1-1-1-0-----|-0-----0---------|-0--(0)----------|-
B|-----1-1-1-------|-3---3---3-3-----|-0---0-0-0-------|-1---1-0-1-3-----|-
G|-2---2-2-2-------|-2---2---2-2-----|-0---0-0-0-------|-0---0-0-0-0-----|-
D|-2---2---2-------|-2---2---2-2-----|-0---0---0-------|-0---0---0-0-----|-
A|-0---------------|-0------(0)------|-x---------------|-x---------------|-
E|-----------------|-----------------|-3---------------|-3------(3)------|-

   Dm                                  C                        (G)
   U   D U D         D   D U D U       U   D U D         D   D U D U
   1   2 & 3   4     1   2 & 3 & 4 &   1   2 & 3   4     1   2 & 3 & 4 &
e|-1-----1-1-------|-1---1-1-1-0-----|-0-----0---------|-0---0-0-0-0-----|-
B|-3---3-3-3-------|-3---3-3-3-3-----|-1---1-1-1-------|-1---1-0-1-0-----|-
G|-2---2-2-2-------|-2---2-0-2-2-----|-0---0-0-0-------|-0---0-0-0-0-----|-
D|-0---0---0-------|-0---0---0-------|-0---0---0-------|-0---0---0-------|-
A|(0)--------------|(0)--------------|-3---------------|-3-------2-------|-
E|-----------------|--------(3)------|-----------------|-----------------|-[/SIZE]
                 Am
You Say that you love me
But you act like you don't
            G
You used to adore me
Laughed at all my jokes
                    Dm
Don't take this the wrong way
              C           G
You put me in harm's way

                Am
When we had our first kiss it was your favorite thing
                G
And you weren't lying when you said it would sting
                    Dm
Don't take this the wrong way
              C           G
You put me in harm's way

            Am
Imagine our children
How ****ed would they be?
          G
Mommy's a psycho
Daddy lives in a dream
                    Dm         
Don't take this the wrong way

C - G

               Am 
I told you I'm sorry
Couldn't thank you enough
                 G
I thought that I loved you but
We weren't in love
              Dm     
We weren't in love
            C
You were my dream
We were ****ed
           Am
You like to think
Push through the back
             G
Ignoring the problems just to hold what we had
                    Dm
Don't take this the wrong way
                    C           G
Don't take this the wrong way 

Am - G - Dm - C(G) - Am

[size="1"]   Am
e|-------15----------------|-------15----------------|-
B|----12----12----12----12-|----12----12----12----12-|-
G|-14----------14----14----|-14----------14----14----|-
   
   G
e|-------12----------------|-------12----------------|-
B|----12----12----12----12-|----12----12----12----12-|-
G|-12----------12----12----|-12----------12----12----|-

   Dm
e|-------10----------------|-------10----------------|-
B|----10----10----10----10-|----10----10----10----10-|-
G|-10----------10----10----|-10----------10----10----|-

   C                        (G)                          
e|-------8-----------------|-------15----------------|----
B|----8-----8-----8-----8--|----12----12----12----12-|----
G|-9-----------9-----9-----|-12----------12----12----|-12-[/SIZE]