#1
Hello, I am desperately trying to figure out how to play this song by Judee Sill but cannot work it out.

If anyone could give me a heads up into what tuning this is played in i would greatly appreciate it!

There is a tab for this on 'chrodify' but it does not seem to go with the song whatsoever.

https://www.youtube.com/watch?v=-w7FfMxjEQw
Last edited by floatingbone at Jun 3, 2014,
#2
Tuning is standard half step down. Eb Ab Db Gb Bb eb This is the intro:

eb------------------------------------------------1---------------0---------------------------
Bb-------3------------3------------1----------------------------------------1----------------
Gb---------2-------------0-----------0-------------2-----------------0--------0------0------
Db------------3------------2-----------2----0---------0----------------2---------2----------
Ab-----------------------------------------------------------3---------------------------------
Eb--1-------------1-------------0-------------------------------------------------------------

eb--------------------------------------
Bb---------1---------1p0--------------
Gb------------0----------------0-------
Db---------------3----------3----------
Ab--------------------------------------
Eb-----1--------------------------------