#1
------- -----10- --------
------- --7----- --0-----
-----2- --------- --------
--0---- --------- -----4--
------- --------- --------
------- --------- --------


(3 intervals)
Last edited by eterna777 at Jun 18, 2014,
#2
Standard tuning, those are

------- -----D- --------
------- --F#---- --B-----
-----A- --------- --------
--D---- --------- -----F#-
------- --------- --------
------- --------- --------

Looks like a Bm7 Arpeggio, that should be enough to help you grab the intervals
Quote by EndTheRapture51
Anyway I have technically statutory raped #nice

Quote by EndThecRinge51
once a girl and i promised to never leave each other

since that promise was broken

i dont make promises any more