#1
Hi! I am a novice guitar player, and my girlfriend has recorded some songs with someone else and I would absolutely love to recreate them with her. All of her songs are on MySpace at https://myspace.com/tcowrchicken/music/songs.

In particular, I would love it if someone could figure out the chords in the song 'Down' and let me know what they are. If someone could also decipher the chords in the song 'IRUM' (or any of the others), I would greatly appreciate it.

Thanks so much to anyone who's willing to help me out with this.
Jared
#2
Here's the first three parts.

Dbm - - - - - - - - - - - - - - A7 - - - - - - Ab7

e|----4----------|---------------|-----5---------|-----4---------|
B|---5-----------|---------------|----5----------|----4----------|
G|--6------------|---------------|---6-----------|---5-----------|
D|-6-------------|---------------|--5------------|--4------------|
A|4--------------|---------------|-7-------------|-6-------------|
E|---------------|---------------|5--------------|4--------------|

Dbm - - - - - - - - - - - Ab7 - A - - - - - - - E - - Ab7

e|4--------------|----------4----|5--------------|-------4-------|
B|5--------------|----------4----|5--------------|9------4-------|
G|6--------------|----------5----|6--------------|9------5-------|
D|6--------------|----------4----|7--------------|9------4-------|
A|4--------------|----------6----|7--------------|7------6-------|
E|---------------|----------4----|5--------------|-------5-------|

A - - - - - - A - - - - - - - Ab7 - Dbm - - - Bm - - A

e|5--------------|5--------------|4------4-------|2------0--------|
B|5--------------|5--------------|4------5-------|3------2--------|
G|6--------------|6--------------|5------6-------|4------2--------|
D|7--------------|7--------------|4------6-------|4------2--------|
A|7--------------|7--------------|6------4-------|2------0--------|
E|5--------------|5--------------|4--------------|----------------|
#3
IRUM is primarily going back and forth between F and C and some Am maybe some Dm (the licks about half way through seem to be based on Dm.

Good Luck!