#1
i want to under stand what does the numbers and words mean .. example:. ^ ^ ^
Q Q E Q E W Q Q E Q E
E||--0----0----0--2----0--|-------------------|--0----0----3--2----0--|
B||--0--------------------|--3----------------|--0--------------------|
G||--0--------------------|--4----------------|--0--------------------|
D||--2--------------------|--5----------------|--2--------------------|
A||------------2----------|--5----------------|------------2----------|
E||-----------------------|-------------------|-----------------------|

^
W E E E E E Q. E E E E E Q.
-------------------|------------------------|------------------------|
--3----------------|-----------------0------|--1--------0--1--3------|
--4----------------|--2--------0--2---------|--------------2---------|
--5----------------|-----------2--3---------|--------0--4------------|
--5----------------|-----0--3---------------|-----0------------------|
-------------------|--1---------------------|--2---------------------|

Rall.---------------bpm=70 bpm=90


btw this is the tab i want to play i want to understand everything about this so i can play any tab i see thats all .. cheers !!
#2
W - whole notes, H - half notes, Q - quarter notes, E - eighth notes

The numbers on the tab refer to the frets on the guitar themselves so 0 means play an open on the string corresponding string and a number means you need to hold down that fret. Multiple numbers at the same time generally means it is a chord.

Rall means speed up from playing 70 beats per minute to 90 over the course of the bars.

Does that help at all?