#2
Excuse me for this self bump, but I'd really appreciate if someone could tab it for me, I just don't even know from where to start from.
#3
This is my last bump, don't want to be a pain in the butt, BUT I'd really wanted to learn it.
Thanks again for your time.
#4
I suck at making text tabs but hopefully you can read this okay. I can't see his fingers during a lot of it so the fingering is just my guess.

e|--12---------------------------------------------------------------------------------------------------|
B|--12h14-14p12-----12-----------------------12----------------12---------------10-----10-----|
G|--13-------------------11h13p11--------11--11h13p11------11----------------9h11-11p9--|
D|-------------------------------------14-14--------------------14------14\12-12-------------------|
A|--------------------------------------------------------------------------------------------------------|
E|--------------------------------------------------------------------------------------------------------|

e|----------5------------------------------0-------------------------0---------------------------------|
B|--5------5--------5----5-----------------------5--------------------------------------5-----------|
G|--4h6---6p4----4h6-6p4-------------------4h6-6p4-2-----------4h6p4-------4h6-6p4---|
D|--7------7----7--------------7\----------------x--------------------------------7-7---------------|
A|--------------------------------------4------4--4--------------0-----0------------------------------|
E|------------------------------------------------------------------------------------------------------|

e|------------------------------------------------------------------------------------------|
B|------5-------------5---------------------7/9--7----------7--------7/9----7---5-----|
G|------4-----4------4---------------------x-----x-----------x-------x-------x---x------|
D|------4h6--6p4---4h6-6p4-----------4/6--4--2-------4-------4/6----4---2-----|
A|--7---7-----7---7--------------7/-----------------x-------2----2----------x---x------|
E|--------------------------------------0-0-----------0--0---0----------------7---5-----|

e|-------------------------------------------------------------------------------------------------|
B|-------------------12-15-------------------------------------12--------------------------------|
G|------12-14b16---------14b16r14p12------12h14b------12b(13)13p12-------------|
D|--14------------------------------------------14-------------------------------------14/11-----|
A|-------------------------------------------------------------------------------------------------|
E|-------------------------------------------------------------------------------------------------|

This part repeats in between the next few licks:
e|------------------------------------------------|
B|-----7/9--7--------7------7/9--7---5/------|
G|-----x-----x--------x------x-----x---x-------|
D|-----4/6--4---2---4------4/6--4---2/------|
A|---------------------2--2---------x---x------|
E|--0-------------------------------7---5/-----|

Lick 1
e|--17b18-17b18~~--15-17b18r17p15b-17----------15b16----|
B|--------------------------------------------------------17-17-------------|
G|-------------------------------------------------------------------------|
D|-------------------------------------------------------------------------|
A|-------------------------------------------------------------------------|
E|-------------------------------------------------------------------------|

Lick 2
e|--5-0h2p0----5------------5------4-----|
B|--------------3----5-----------------------|
G|----------------------6b7r6---6/4-------|
D|--------------------------------------------|
A|--------------------------------------------|
E|--------------------------------------------|

End
e|--5-------------5-------------------------------|
B|-----5h7p5-------5----------------------------|
G|--------------7--------------7-----7/-9--------|
D|------------------------------7h8-8/-9--------|
A|-------------------------5/7-7----9/11-------|
E|-------------------------------------------------|