#1
Hi,

I'm looking for a certain style of tab.

In Can't Stop by Red Hot Chilli Peppers the main riff goes like this

-|----------------------------------------------------------------------------
-|----------------------------------------------------------------------------
-|------7--9---------7--9------------7--9---------7--9------------------------
-|----------------------------------------------------------------------------
-|-7-7--------7-7-7--------7-7-7--5--------5-5-5-------5-5-5------------------
-|----------------------------------------------------------------------------


-|---------------------------------------------------------------------------
-|---------------------------------------------------------------------------
-|----7--9---------7--9------------7--9--------7--9--------------------------
-|---------------------------------------------------------------------------
-|---------------------------------------------------------------------------
-|-7--------7-7-7--------7-7-7--8-------8-8-8--------8-8-8------------------


Notice how it's only one note at a time, however all the other strings are muted and you strum instead of picking, can anyone recommend similar tabs or riffs like this?

Doesn't have to be a similar song, once you only play one note at a time and strum while muting the other strings.

I'm fairly new but I've fallen in love with this "style" and would appreciate if anyone has any other recommendations.

Thanks,
#2
Do you mean something like this?



Cave - Muse

|---x-x-x-x--------x-x-x-x-x-x-x--------x-x--|
|---x-x-x-x--------x-x-x-x-x-x-x--------x-x--|
|---x-x-x-x-7------x-x-x-x-x-x-x-7------x-x--|
|-6-6-6-6-6-x------x-x-6-6-6-6-6-x------x-x--|
|-x-x-x-x-x-x----------x-x-x-x-x-x-----------|
|-x-x-x-x-x-x----------x-x-x-x-x-x-----------| etc.
                                         x2                                   
#3
Quote by Dr.Cheese
Do you mean something like this?



Cave - Muse

|---x-x-x-x--------x-x-x-x-x-x-x--------x-x--|
|---x-x-x-x--------x-x-x-x-x-x-x--------x-x--|
|---x-x-x-x-7------x-x-x-x-x-x-x-7------x-x--|
|-6-6-6-6-6-x------x-x-6-6-6-6-6-x------x-x--|
|-x-x-x-x-x-x----------x-x-x-x-x-x-----------|
|-x-x-x-x-x-x----------x-x-x-x-x-x-----------| etc.
x2


Yes exactly!

I'm trying to improve my finger muting technique (not just palm) but I also think it sounds great
#4
Many rhcp songs, try warlocks, purple stain, throw away your television.
songs like scar tissue use the same technique, but also with chords or two notes.
#5
Quote by legolas220
Many rhcp songs, try warlocks, purple stain, throw away your television.
songs like scar tissue use the same technique, but also with chords or two notes.


Thanks a million, I'll check them out!