#2
E||--19p15--------------15-19p15-------------15-17p15---------|
B||-----------17-15-17--------------17-15-17--------------17-15-|
G||-------------------------------------------------------------------------|
D||-------------------------------------------------------------------------|
A||-------------------------------------------------------------------------|
E||-------------------------------------------------------------------------|


--17p12--------------12-17p12-------------12-15p12---------|
-----------15-12-15--------------15-12-15--------------15-12-|
-------------------------------------------------------------------------|
-------------------------------------------------------------------------|
-------------------------------------------------------------------------|
-------------------------------------------------------------------------|


--15p10--------------10-15p10-------------10-12p10---------|
-----------12-10-12--------------12-10-12--------------12-10-|
-------------------------------------------------------------------------|
-------------------------------------------------------------------------|
-------------------------------------------------------------------------|
-------------------------------------------------------------------------|


------------------------------------------------------------------------|
--15p10--------------10-15p10-------------10-12p10---------|
-----------12-11-12--------------12-11-12--------------12-11--|
------------------------------------------------------------------------|
------------------------------------------------------------------------|
------------------------------------------------------------------------|


----------------------------------------------------------|
----------------------------------------------------------|
--14p9------------9-14p9------------9-12p9--------|
---------12-9-12-----------12-9-12-----------12-9-|
----------------------------------------------------------|
----------------------------------------------------------|


-------------------------------------------------------------|-------------------||
-------------------------------------------------------------|-------------------||
-------------------------------------------------------------|-------------------||
--14p9-------------9-14p9-------------9-12p9---------|-------------------||
---------12-10-12----------12-10-12-----------12-10-|--7---------------||
-------------------------------------------------------------|-------------------||
#3
holy shit!

thank you sir!!

*bow*

finally i've got it

ive been trying for 2 years now ... of course not every day but
i always gave up

thanks again
#5
I use GP5 and then I export it to ASCII so it can be read as text.

Idk if it supports Linux; if it doesn't then you could use TuxGuitar (basically the same thing but free) which I believe works on any OS.