#1
I'm getting the guitar part down near the end, however, its really difficult to get this down.

My tuning is in EADF#AE

One part sort of goes a bit like this, but this isn't accurate or complete.
---------------------------------------------------------------------------------
---------------6-------------------6------------------4--------------4---------
-----------------------5-----------------5------------------5-------------5----
----------------------------6----------------6-------------------6-----------6-
----------------------------------------------------------------------------------
----------------------------------------------------------------------------------

Don't have the rest of that part down yet.

Another part goes something like this-


------5h7-------4-----2--4---5--4----4---2----0-------0h2---2---2p0----------2h4------2--
--------------------------------------------------------4-------------------------4---------------------
----------------------------------------------------------------------------------------------------------
----------------------------------------------------------------------------------------------------------
----------------------------------------------------------------------------------------------------------
----------------------------------------------------------------------------------------------------------

I don't know the rest, so help would be much appreciated.
Last edited by Sludgehead at Aug 10, 2014,