#2
E|-------------------------------------------------
B|--------------------------------------------------
G|-----------2------------------------0-----------
D|--------2-----2------------------0---------------
A|--0--3-----------3--0--3-----2-----------0-3----
E|----------------------------3-----------1--------

E|-------------------------------------------------
B|--------------------------------------------------
G|-----------2------------------------0-----------
D|--------2-----2------------------0--------------3-
A|--0--3-----------3--0--3-----2-----------2-3----
E|----------------------------3-----------1----------

Eight note picking, I think this is okay.
Last edited by FunkyMonk13 at Aug 11, 2014,
#4
I know it's based on the a minor chord here, with notes: ACEAECAC
E|----------------------------
B|----------------------------
G|-----------2----------------
D|--------2-----2-------------
A|--0--3-----------3--0--3----
E|----------------------------

G major here:

E|-------------------
B|-------------------
G|-------0-----------
D|-----0------------
A|--2---------------
E|3-----------------

And F major here:

E|----------
B|---------
G|---------
D|---------
A|----0-3--
E|1--------