#1
Hi,

I was just having a look at the californication tab which goes like this:

-------9---12---14---(14)-----------9---12---14---(14)------
--10---------------------------10---------------------------
------------------------------------------------------------
------------------------------------------------------------
------------------------------------------------------------
------------------------------------------------------------

When I realized that it sounded very familiar to some recent pop music when you change it to

-------9---12-----14--16--14-------12----9---9----7
--10------------------------------------------------------
------------------------------------------------------------
------------------------------------------------------------
------------------------------------------------------------
------------------------------------------------------------
(It's not perfect but close enough)

It reminds me of avicci or something but I can't but my finger on it.

Can somebody help me out? You'll recognize it as soon as you play it, except that this part has no words and I can't remember the rest.

Thanks,
#2
For anyone interested, I figured it out.. it's Kids by MGMT

Haha how off was I!