#1
Hey Guys,

can somebody pleaaaaaaaaase work out the tab for this short acoustic guitar? the guitar part of this song is stuck in my head and I'll go crazy if I can't play it, it must be very easy for someone experienced with good ears, it sounds like only one or two strings are used and the guitar starts at 2:03 of this video and lasts only for 30 second:

https://www.youtube.com/watch?v=9ShdMyfi1IM

Thanks!!!!
#2
Here you go (timing on the slides was a bit hard to notate but you should be able to figure it out):

E||---------------------------------------|---------------------------------|-------------------------------------|
B||---------------------------------------|---------------------------------|-------------------------------------|
G||---------------------------------------|---------------------------------|-------------------------------------|
D||--12--10-----12------10-----12--|-----10-----12-----10--------|--12--10-----12-----10-----10--|
A||---------------------------------------|---------------------------------|-------------------------------------|
E||---------------------------------------|---------------------------------|-------------------------------------|


--------------------------------|-----------------------------|------------------------------|
--------------------------------|-----------------------------|------------------------------|
--------------------------------|-----------------------------|------------------------------|
-----9-----9-----9\-6----6--|--6--5-----5----------/8--|----------8--8--6--6\--5--|
--------------------------------|-----------------------------|------------------------------|
--------------------------------|-----------------------------|------------------------------|


----------------------------|-------------------------------|-----------------------------------------|
----------------------------|-------------------------------|-----------------------------------------|
----------------------------|-------------------------------|-----------------------------------------|
--------5--5-----5\---9--|-------9--9--9--9\-----12--|--12--10-----12-----10--10--12--|
----------------------------|-------------------------------|-----------------------------------------|
----------------------------|-------------------------------|-----------------------------------------|


-----------------------------------|----------------------------------------|-----------------------------|
-----------------------------------|----------------------------------------|-----------------------------|
-----------------------------------|----------------------------------------|-----------------------------|
--12--10-----12-----13-------|--13--12-----12\-----10-----10\--|----9-----9\-----6-----6--|
-----------------------------------|----------------------------------------|-----------------------------|
-----------------------------------|----------------------------------------|-----------------------------|


---------------------------------|----------------------------|-------------------------------|
---------------------------------|----------------------------|-------------------------------|
---------------------------------|----------------------------|-------------------------------|
--6\--5-----5\-----3-----3\--|-----1--1----3----1--3--|--/5----5--5--5/-----9-----|
---------------------------------|----------------------------|-------------------------------|
---------------------------------|----------------------------|-------------------------------|


-------------------------------------||
-------------------------------------||
--------------------------------------||
--9--9--9--9--9--9--------------||
-------------------------------------||
------------------------------------||