#1
I've been revisiting an Australian band called Vomitor I saw live years back and I want to learn some of their stuff. This is the song I've had a go at:

https://www.youtube.com/watch?v=NQoMD6rfoac

And this is what I have so far for the main riff that also starts the song:

Riff 1:

e--------------------------------------------------|
B--------------------------------------------------|
G--------------------------------------------------|
D--------------------------------------------------|
A---2---------3---------5---------7-4/5------------|
E---0-0-0-0-0-1-0-0-0-0-3-0-0-0-0-5-2/3------------|
      . . . .   . . . .   . . . .

e--------------------------------------------------|
B--------------------------------------------------|
G--------------------------------------------------|
D--------------------------------------------------|
A---2---------3---------5---------7-4-5------------|
E---0-0-0-0-0-1-0-0-0-0-3-0-0-0-0-5-2-3------------|
      . . . .   . . . .   . . . .



Just want some advice on whether I am on the right track. I have based it partly on watching a live video. Also I am completely stuck on the bit that starts at :50. It seems the same but higher, but then not quite the same haha. Any advice or help would be appreciated. The live video is here:

https://www.youtube.com/watch?v=xrW155KX-oM
Last edited by ThrashingDeath at Aug 29, 2014,
#2
Yeah it's just that the powerchords are 8ths and more PMs but yeah that's the riff

And here are the rest, in order of first appearance. The one you're wondering about it's just that it does 4ths/inverts which sounds a bit different.

Attachments:
Vomitor.gp5
Last edited by fanapathy at Aug 29, 2014,