#1
I was really wanting to learn Destroyer Of The Universe by Amon Amarth, but they only have Guitar Pro Tabs for it :/ I can't use Pro Tabs so I was wondering if anybody that can use it could translate it to a regular tab for me. Thanks.
2014 Ibanez RG8
2013 Schecter Hellraiser
1999 Schecter Revenger 7
2007 LTD 'Monster' F
B.C. Rich KK Warlock
No-Name Acoustic
#3
I can't utilize anything like that, due to my internet :/ I can only view straight tabs. Thank you for the quick reply though!
2014 Ibanez RG8
2013 Schecter Hellraiser
1999 Schecter Revenger 7
2007 LTD 'Monster' F
B.C. Rich KK Warlock
No-Name Acoustic
#4
EDIT: I guess it deleted my message because it was too long?

I'll do it in sections:

Intro
      S S S S S S S S S S S S S S S S    S S S S S S S S S S S S S S S S  
B ||----------------------------------|----------------------------------|
F#||----------------------------------|----------------------------------|
D ||----------------------------------|----------------------------------|
A ||----------------------------------|----------------------------------|
E ||--2-2-------------2-2-----2-2-3-3-|--5-5-------------------------3-3-|
B ||------0-0-0-0-0-0-----0-0---------|------1-1-1-1-1-1-1-1-1-1-1-1-----|


S S S S S S S S S S S S S S S S S S S S S S S S S S S S S S S S
----------------------------------|----------------------------------|
----------------------------------|----------------------------------|
----------------------------------|----------------------------------|
----------------------------------|----------------------------------|
--2-2-------------2-2-----2-2-3-3-|------------------------------3-3-|
------0-0-0-0-0-0-----0-0---------|--3-3-3-3-3-3-3-3-1-1-1-1-1-1-----|


S S S S S S S S S S S S S S S S S S S S S S S S S S S S S S S S
----------------------------------|----------------------------------|
----------------------------------|----------------------------------|
----------------------------------|----------------------------------|
----------------------------------|----------------------------------|
--2-2-------------2-2-----2-2-3-3-|--5-5-------------------------3-3-|
------0-0-0-0-0-0-----0-0---------|------1-1-1-1-1-1-1-1-1-1-1-1-----|


S S S S S S S S S S S S S S S S S S S S S S S S S S S S S S S S
----------------------------------|----------------------------------|
----------------------------------|----------------------------------|
----------------------------------|----------------------------------|
----------------------------------|----------------------------------|
--2-2-------------2-2-----2-2-3-3-|----------------------------------|
------0-0-0-0-0-0-----0-0---------|--3-3-3-3-3-3-3-3-1-1-1-1-1-1-1-1-|


Verse
     PM PM PM PM PM PM PM PM PM PM PM PM PM PM    PM PM    PM PM               
E S S S S S S S S S S S S S S S S E S S E Q Q
-----------------------------------------------|------------------------------|
-----------------------------------------------|------------------------------|
-----------------------------------------------|------------------------------|
--2--------------------------------------------|--------2--------2--3----3----|
--2--------------------------------------------|--------2--------2--3----3----|
-----0--0--0--0--0--0--0--0--0--0--0--0--0--0--|--0--0-----0--0---------------|


PM PM PM PM PM PM PM PM PM PM PM PM PM PM
E S S S S S S S S S S S S S S S S S S S S S S S S S S S S S S
-----------------------------------------------|----------------------------------|
-----------------------------------------------|----------------------------------|
-----------------------------------------------|----------------------------------|
--2--------------------------------------------|----------------------------------|
--2--------------------------------------------|----------3-3-2-2-2-2-2-2-2-2-2-2-|
-----0--0--0--0--0--0--0--0--0--0--0--0--0--0--|--0-0-1-1-------------------------|


PM PM PM PM PM PM PM PM PM PM PM PM PM PM PM PM PM PM
E S S S S S S S S S S S S S S S S E S S E Q Q
-----------------------------------------------|------------------------------|
-----------------------------------------------|------------------------------|
-----------------------------------------------|------------------------------|
--2--------------------------------------------|--------2--------2--5----5----|
--2--------------------------------------------|--------2--------2--5----5----|
-----0--0--0--0--0--0--0--0--0--0--0--0--0--0--|--0--0-----0--0---------------|


PM PM PM PM PM PM PM PM PM PM PM PM PM PM
E S S S S S S S S S S S S S S S S S S S S S S S S S S S S S S
-----------------------------------------------|----------------------------------|
-----------------------------------------------|----------------------------------|
-----------------------------------------------|----------------------------------|
--3--------------------------------------------|----------------------------------|
--3--------------------------------------------|----------------------------------|
-----1--1--1--1--1--1--1--1--1--1--1--1--1--1--|--0-0-1-1-3-3-4-4-4-4-4-4-3-3-3-3-|


PM PM PM PM PM PM PM PM PM PM PM PM PM PM PM PM PM PM
E S S S S S S S S S S S S S S S S E S S E Q Q
-----------------------------------------------|------------------------------|
-----------------------------------------------|------------------------------|
-----------------------------------------------|------------------------------|
--2--------------------------------------------|--------2--------2--3----3----|
--2--------------------------------------------|--------2--------2--3----3----|
-----0--0--0--0--0--0--0--0--0--0--0--0--0--0--|--0--0-----0--0---------------|


PM PM PM PM PM PM PM PM PM PM PM PM PM PM
E S S S S S S S S S S S S S S S S S S S S S S S S S S S S S S
-----------------------------------------------|----------------------------------|
-----------------------------------------------|----------------------------------|
-----------------------------------------------|----------------------------------|
--2--------------------------------------------|----------------------------------|
--2--------------------------------------------|----------3-3-2-2-2-2-2-2-2-2-2-2-|
-----0--0--0--0--0--0--0--0--0--0--0--0--0--0--|--0-0-1-1-------------------------|


PM PM PM PM PM PM PM PM PM PM PM PM PM PM PM PM PM PM
E S S S S S S S S S S S S S S S S E S S E Q Q
-----------------------------------------------|------------------------------|
-----------------------------------------------|------------------------------|
-----------------------------------------------|------------------------------|
--2--------------------------------------------|--------2--------2--5----5----|
--2--------------------------------------------|--------2--------2--5----5----|
-----0--0--0--0--0--0--0--0--0--0--0--0--0--0--|--0--0-----0--0---------------|


PM PM PM PM PM PM PM PM PM PM PM PM PM PM
E S S S S S S S S S S S S S S S S S S S S S S S S S S S S S S
-----------------------------------------------|----------------------------------|
-----------------------------------------------|----------------------------------|
-----------------------------------------------|----------------------------------|
--3--------------------------------------------|----------------------------------|
--3--------------------------------------------|----------------------------------|
-----1--1--1--1--1--1--1--1--1--1--1--1--1--1--|--0-0-1-1-3-3-4-4-4-4-4-4-3-3-3-3-|


PM PM PM PM PM PM
E Q E Q E E
------------------------|
------------------------|
------------------------|
------------------------|
--2--2----2--2----2--2--|
--0--0----0--0----0--0--|
Last edited by imspazzen at Sep 10, 2014,
#5
These split guitar sections would be a pain in the ass to organize so I'll put them up separately.
Chorus (Lead)
  S S S S S S S S S S S S S S S S    S S S S S S S S S S S S  S  S S S  
|----------------------------------|------------------------------------|
|----------------------------------|------------------------------------|
|----------------------------------|------------------------------------|
|----------------------------------|--------------------------10-10-9-9-|
|--7-7-7-7-7-7-7-7-7-7-7-7-5-5-7-7-|--7-7-7-7-5-5-7-7-7-7-7-7-----------|
|----------------------------------|------------------------------------|


S S S S S S S S S S S S S S S S S S S S S S S S S S S S S S S S
--------------------------------------------|----------------------------------------------|
--------------------------------------------|----------------------------------------------|
--------------------------------------------|----------------------------------------------|
--9-9-9-9-----------------------------------|------------------------------------10-10-9-9-|
----------10-10-10-10-10-10-10-10-9-9-10-10-|--10-10-10-10-9-9-10-10-10-10-10-10-----------|
--------------------------------------------|----------------------------------------------|


S S S S S S S S S S S S S S S S S S S S S S S S S S S S S S S S
----------------------------------|------------------------------------|
----------------------------------|------------------------------------|
----------------------------------|------------------------------------|
--9-9-9-9-------------------------|--------------------------10-10-9-9-|
----------7-7-7-7-7-7-7-7-5-5-7-7-|--7-7-7-7-5-5-7-7-7-7-7-7-----------|
----------------------------------|------------------------------------|


S S S S S S S S S S S S S S S S S S S S S S S S S S S S S S S S
----------------------------------|----------------------------------|
----------------------------------|----------------------------------|
----------------------------------|----------------------------------|
--9-9-9-9-9-9-9-9-9-9-9-9-9-9-9-9-|--9-9-9-9-9-9-9-9-9-9-9-9-9-9-9-9-|
----------------------------------|----------------------------------|
----------------------------------|----------------------------------|


S S S S S S S S S S S S S S S S S S S S S S S S S S S S S S S S
----------------------------------|------------------------------------|
----------------------------------|------------------------------------|
----------------------------------|------------------------------------|
----------------------------------|--------------------------10-10-9-9-|
--7-7-7-7-7-7-7-7-7-7-7-7-5-5-7-7-|--7-7-7-7-5-5-7-7-7-7-7-7-----------|
----------------------------------|------------------------------------|


S S S S S S S S S S S S S S S S S S S S S S S S S S S S S S S S
--------------------------------------------|----------------------------------------------|
--------------------------------------------|----------------------------------------------|
--------------------------------------------|----------------------------------------------|
--9-9-9-9-----------------------------------|------------------------------------10-10-9-9-|
----------10-10-10-10-10-10-10-10-9-9-10-10-|--10-10-10-10-9-9-10-10-10-10-10-10-----------|
--------------------------------------------|----------------------------------------------|


S S S S S S S S S S S S S S S S S S S S S S S S S S S S S S S S
----------------------------------|------------------------------------|
----------------------------------|------------------------------------|
----------------------------------|------------------------------------|
--9-9-9-9-------------------------|--------------------------10-10-9-9-|
----------7-7-7-7-7-7-7-7-5-5-7-7-|--7-7-7-7-5-5-7-7-7-7-7-7-----------|
----------------------------------|------------------------------------|


S S S S S S S S S S S S S S S S S S S S S S S S S S S S S S S S Q. Q. Q
----------------------------------|----------------------------------|---------------------|
----------------------------------|----------------------------------|---------------------|
----------------------------------|----------------------------------|---------------------|
--9-9-9-9-9-9-9-9-9-9-9-9-9-9-9-9-|--9-9-9-9-9-9-9-9-9-9-9-9-9-9-9-9-|--3------2------0----|
----------------------------------|----------------------------------|--3------2------0----|
----------------------------------|----------------------------------|---------------------|


E Q. Q Q
----------------------|
----------------------|
----------------------|
--L--2------3----5----|
--L--2------3----5----|
----------------------|



Chorus (rhythm)
  S S S S S S S S S S S S S S S S    S S S S S S S S S S S S S S S S  
|----------------------------------|----------------------------------|
|----------------------------------|----------------------------------|
|----------------------------------|----------------------------------|
|----------------------------------|----------------------------------|
|----------------------------------|----------------------------------|
|--0-0-0-0-0-0-0-0-0-0-0-0-0-0-0-0-|--0-0-0-0-0-0-0-0-0-0-0-0-0-0-0-0-|


S S S S S S S S S S S S S S S S S S S S S S S S S S S S S S S S
----------------------------------|----------------------------------|
----------------------------------|----------------------------------|
----------------------------------|----------------------------------|
----------------------------------|----------------------------------|
----------------------------------|----------------------------------|
--3-3-3-3-3-3-3-3-3-3-3-3-3-3-3-3-|--3-3-3-3-3-3-3-3-3-3-3-3-3-3-3-3-|


S S S S S S S S S S S S S S S S S S S S S S S S S S S S S S S S
----------------------------------|----------------------------------|
----------------------------------|----------------------------------|
----------------------------------|----------------------------------|
----------------------------------|----------------------------------|
----------------------------------|----------------------------------|
--5-5-5-5-5-5-5-5-5-5-5-5-5-5-5-5-|--5-5-5-5-5-5-5-5-5-5-5-5-5-5-5-5-|


S S S S S S S S S S S S S S S S S S S S S S S S S S S S S S S S
----------------------------------|----------------------------------|
----------------------------------|----------------------------------|
----------------------------------|----------------------------------|
----------------------------------|----------------------------------|
--3-3-3-3-3-3-3-3-3-3-3-3-3-3-3-3-|----------------------------------|
----------------------------------|--1-1-1-1-1-1-1-1-1-1-1-1-1-1-1-1-|


S S S S S S S S S S S S S S S S S S S S S S S S S S S S S S S S
----------------------------------|----------------------------------|
----------------------------------|----------------------------------|
----------------------------------|----------------------------------|
----------------------------------|----------------------------------|
----------------------------------|----------------------------------|
--0-0-0-0-0-0-0-0-0-0-0-0-0-0-0-0-|--0-0-0-0-0-0-0-0-0-0-0-0-0-0-0-0-|


S S S S S S S S S S S S S S S S S S S S S S S S S S S S S S S S
----------------------------------|----------------------------------|
----------------------------------|----------------------------------|
----------------------------------|----------------------------------|
----------------------------------|----------------------------------|
----------------------------------|----------------------------------|
--3-3-3-3-3-3-3-3-3-3-3-3-3-3-3-3-|--3-3-3-3-3-3-3-3-3-3-3-3-3-3-3-3-|


S S S S S S S S S S S S S S S S S S S S S S S S S S S S S S S S
----------------------------------|----------------------------------|
----------------------------------|----------------------------------|
----------------------------------|----------------------------------|
----------------------------------|----------------------------------|
----------------------------------|----------------------------------|
--5-5-5-5-5-5-5-5-5-5-5-5-5-5-5-5-|--5-5-5-5-5-5-5-5-5-5-5-5-5-5-5-5-|


S S S S S S S S S S S S S S S S S S S S S S S S S S S S S S S S Q. Q. Q
----------------------------------|----------------------------------|---------------------|
----------------------------------|----------------------------------|---------------------|
----------------------------------|----------------------------------|---------------------|
----------------------------------|----------------------------------|--3------2------0----|
--2-2-2-2-2-2-2-2-2-2-2-2-2-2-2-2-|--5-5-5-5-5-5-5-5-5-5-5-5-5-5-5-5-|--3------2------0----|
----------------------------------|----------------------------------|---------------------|


E Q. Q Q
----------------------|
----------------------|
----------------------|
--L--2------3----5----|
--L--2------3----5----|
----------------------|
#6
Mini-Solo (rhythm plays intro riff)
   S    S    S    S    S    S    S    S    S    S    S    S    S    S    S    S    
--15pb-15pb-15pb-15pb-15pb-15pb-15pb-15pb-15pb-15pb-15pb-15pb-15pb-15pb-15pb-15pb-|
----------------------------------------------------------------------------------|
----------------------------------------------------------------------------------|
----------------------------------------------------------------------------------|
----------------------------------------------------------------------------------|
----------------------------------------------------------------------------------|


S S S S S S S S S S S S S S S S
--15pb-15pb-15pb-15pb-15pb-15pb-15pb-15pb-15pb-15pb-15pb-15pb-15pb-15pb-12h-15-|
-------------------------------------------------------------------------------|
-------------------------------------------------------------------------------|
-------------------------------------------------------------------------------|
-------------------------------------------------------------------------------|
-------------------------------------------------------------------------------|


T T T T
S S S S S S S S S S S S S S S S
--19p-15p-12h-15-19p-15p-12h-15-19p-15p-12h-15-19p-15p-12h-15-|
--------------------------------------------------------------|
--------------------------------------------------------------|
--------------------------------------------------------------|
--------------------------------------------------------------|
--------------------------------------------------------------|


T T T T T T T T T T T T
|---3--| |---3--| |---3--| |---3--| |---3--| |---3--| |---3--| |---3--|
S S S S S S S S S S S S S S S S S S S S S S S S
--19p-15-19p-15-19p-15-19p-15-19p-15-19p-15-20p-15-20p-15-20p-15-20p-15-20p-15-20p-15-|
--------------------------------------------------------------------------------------|
--------------------------------------------------------------------------------------|
--------------------------------------------------------------------------------------|
--------------------------------------------------------------------------------------|
--------------------------------------------------------------------------------------|


W
W W S S S S S S S S S S S S S S S S
--22br----------------|--19----------------|--12-12-13-13-------------------------------------|
----------------------|--------------------|--------------13-13-14-14-11-11-13-13-------------|
----------------------|--------------------|--------------------------------------10-10-12-12-|
----------------------|--------------------|--------------------------------------------------|
----------------------|--------------------|--------------------------------------------------|
----------------------|--------------------|--------------------------------------------------|


H H E E Q H
--22br--------L~--------|--L\-------------------|
-(24)br-------L~--------|--L\-------------------|
------------------------|-----------------------|
------------------------|-----------------------|
------------------------|-----------------------|
------------------------|-----------------------|


Then play verse again

Bridge Pt. 1 (play this 8 times)
     PM PM PM    PM PM PM       PM PM PM 
E E E E E E E E E E E E E E E E
--------------------------|---------------------------|
--------------------------|---------------------------|
--------------------------|---------------------------|
--------------------------|-----------------------10--|
--7-----------7-----------|--7-----------7--8--8------|
-----0--0--0-----0--0--0--|-----0--0--0---------------|


Bridge Pt. 2
  S S S S S S S S S S S S S S S S  
|----------------------------------|
|----------------------------------|
|----------------------------------|
|----------------------------------|
|--7-7-7-7-7-7-7-7-8-8-8-8-8-8-8-8-|
|----------------------------------|


S S S S S S S S S S S S S S S S S S S S S S S S S S S S S S S S
------------------------------------------|------------------------------------------|
------------------------------------------|------------------------------------------|
------------------------------------------|------------------------------------------|
--10-10-10-10-10-10-10-10-----------------|------------------10-10-10-10-10-10-10-10-|
--------------------------7-7-7-7-7-7-7-7-|--8-8-8-8-8-8-8-8-------------------------|
------------------------------------------|------------------------------------------|


PM PM PM PM PM PM
S S S S S S S S S S S S S S S S E E E E E E E E
--------------------------------------------------|----------------------------|
--------------------------------------------------|----------------------------|
--------------------------------------------------|----------------------------|
--10-10-10-10-10-10-10-10-12-12-12-12-12-12-12-12-|--10-----------10-----------|
--------------------------------------------------|----------------------------|
--------------------------------------------------|------0--0--0------0--0--0--|


PM PM PM PM PM PM PM PM PM PM PM PM
E E E E E E E E E E E E E E E E E E E E E E E E
-----------------------------|--------------------------|---------------------------|
-----------------------------|--------------------------|---------------------------|
-----------------------------|--------------------------|---------------------------|
--10-----------10--------10--|--9-----------9-----------|--9-----------9--------10--|
-------------------8--8------|--------------------------|-----------------8--8------|
------0--0--0----------------|-----0--0--0-----0--0--0--|-----0--0--0---------------|


Then repeat Pt.1 and Pt. 2
#7
Solo rhythm
  S S S S S S S S S S S S S S S S    S S S S S S S S S S S S S S S S  
|----------------------------------|----------------------------------|
|----------------------------------|----------------------------------|
|----------------------------------|----------------------------------|
|----------------------------------|----------------------------------|
|----------------------------------|----------------------------------|
|--0-0-0-0-0-0-0-0-0-0-0-0-0-0-0-0-|--0-0-0-0-0-0-0-0-0-0-0-0-0-0-0-0-|


S S S S S S S S S S S S S S S S S S S S S S S S S S S S S S S S
----------------------------------|----------------------------------|
----------------------------------|----------------------------------|
----------------------------------|----------------------------------|
----------------------------------|----------------------------------|
----------------------------------|----------------------------------|
--3-3-3-3-3-3-3-3-3-3-3-3-3-3-3-3-|--3-3-3-3-3-3-3-3-3-3-3-3-3-3-3-3-|


S S S S S S S S S S S S S S S S S S S S S S S S S S S S S S S S
----------------------------------|----------------------------------|
----------------------------------|----------------------------------|
----------------------------------|----------------------------------|
----------------------------------|----------------------------------|
----------------------------------|----------------------------------|
--5-5-5-5-5-5-5-5-5-5-5-5-5-5-5-5-|--5-5-5-5-5-5-5-5-5-5-5-5-5-5-5-5-|


S S S S S S S S S S S S S S S S S S S S S S S S S S S S S S S S
----------------------------------|----------------------------------|
----------------------------------|----------------------------------|
----------------------------------|----------------------------------|
----------------------------------|----------------------------------|
--8-8-8-8-8-8-8-8-8-8-8-8-8-8-8-8-|--8-8-8-8-8-8-8-8-8-8-8-8-8-8-8-8-|
----------------------------------|----------------------------------|


S S S S S S S S S S S S S S S S S S S S S S S S S S S S S S S S
----------------------------------|----------------------------------|
----------------------------------|----------------------------------|
----------------------------------|----------------------------------|
----------------------------------|----------------------------------|
--7-7-7-7-7-7-7-7-7-7-7-7-7-7-7-7-|--7-7-7-7-7-7-7-7-7-7-7-7-7-7-7-7-|
----------------------------------|----------------------------------|


S S S S S S S S S S S S S S S S S S S S S S S S S S S S S S S S
----------------------------------|----------------------------------|
----------------------------------|----------------------------------|
----------------------------------|----------------------------------|
----------------------------------|----------------------------------|
----------------------------------|----------------------------------|
--3-3-3-3-3-3-3-3-3-3-3-3-3-3-3-3-|--3-3-3-3-3-3-3-3-3-3-3-3-3-3-3-3-|


S S S S S S S S S S S S S S S S S S S S S S S S S S S S S S S S
----------------------------------|----------------------------------|
----------------------------------|----------------------------------|
----------------------------------|----------------------------------|
----------------------------------|----------------------------------|
----------------------------------|----------------------------------|
--5-5-5-5-5-5-5-5-5-5-5-5-5-5-5-5-|--5-5-5-5-5-5-5-5-5-5-5-5-5-5-5-5-|


S S S S S S S S S S S S S S S S S S S S S S S S S S S S S S S S
----------------------------------|----------------------------------|
----------------------------------|----------------------------------|
----------------------------------|----------------------------------|
----------------------------------|----------------------------------|
--8-8-8-8-8-8-8-8-8-8-8-8-8-8-8-8-|--8-8-8-8-8-8-8-8-8-8-8-8-8-8-8-8-|
----------------------------------|----------------------------------|


Solo
                            E   E   E  E   E   E  E   E      E  E   E  E   E   E  E   E   
|--<>8--10--12--8--10------8------|-------------------------------|
|----------------------12-----10--|--12--9--10--------------------|
|---------------------------------|-------------9--10------9------|
|---------------------------------|--------------------12-----10--|
|---------------------------------|-------------------------------|
|---------------------------------|-------------------------------|


|----3----|
E E E E E E E E Q Q Q H
---------------------------|--------------------------|
---------------------------|--------------------------|
--7------------------------|--------------------------|
-----9--10--7--9--6--7-----|-----------------6--------|
------------------------7--|--5----7----8-------------|
---------------------------|--------------------------|


S S S S S S S S S S S S S S S S
--13p-12h-13p-12h-13p-12h-13p-12-15p-13h-15p-13h-15p-13h-15p-13-|
----------------------------------------------------------------|
----------------------------------------------------------------|
----------------------------------------------------------------|
----------------------------------------------------------------|
----------------------------------------------------------------|


S S S S S S S S S S S S S S S S H. Q
--17p-15h-17p-15h-17p-15h-17p-15-19p-17h-19p-17h-19p-17h-19p-17-|--20~------------19----|
----------------------------------------------------------------|-----------------------|
----------------------------------------------------------------|-----------------------|
----------------------------------------------------------------|-----------------------|
----------------------------------------------------------------|-----------------------|
----------------------------------------------------------------|-----------------------|


Q. Q. Q E E E E E E E E E E E E E E E E
--17------19------20----|------20--19--20--17--20--19--20--|------20--19--20--17--20--19--20--|
------------------------|--17------------------------------|--17------------------------------|
------------------------|----------------------------------|----------------------------------|
------------------------|----------------------------------|----------------------------------|
------------------------|----------------------------------|----------------------------------|
------------------------|----------------------------------|----------------------------------|


E E E E E E E E E E E E E E E E
------19--17--19--15--19--17--19--|------19--17--19--15--19--17--19--|
--15------------------------------|--15------------------------------|
----------------------------------|----------------------------------|
----------------------------------|----------------------------------|
----------------------------------|----------------------------------|
----------------------------------|----------------------------------|


E E E E E E E E E E E E E E E E
------17--15--17--13--17--15--17--|------17--15--17--13--17--15--17--|
--13------------------------------|--13------------------------------|
----------------------------------|----------------------------------|
----------------------------------|----------------------------------|
----------------------------------|----------------------------------|
----------------------------------|----------------------------------|


S S S S S S S S S S S S S S S S
--------------------------------------------------|
--17-17-17-17-17-17-15-15-15-15-15-15-17-17-17-17-|
--------------------------------------------------|
--------------------------------------------------|
--------------------------------------------------|
--------------------------------------------------|


S S S S S S S S S S S S S S S S W
--------------17-17-17-17-20-20-20-20-19-19-17-17-|--19~----------------|
--17-17-17-17-------------------------------------|---------------------|
--------------------------------------------------|---------------------|
--------------------------------------------------|---------------------|
--------------------------------------------------|---------------------|
--------------------------------------------------|---------------------|


Then just play the chorus a couple of times