#2
Here we go:
first chord, play this 4 times
e-----------------------
b----------------------
g---2-2-------2-2-----
d---2---0h2--2-------
a-0-------------------
E----------------------

second chord, played 4 times
e-----------------------
b----------------------
g---4-4-------4-4----
d---4---2h4--4-------
a-2--------------------
E----------------------
Quote by dmtransmutation
What the Grunge-haters think is just mindless musical nonsense, in reality is the restoration of the old rule of harmony to not write an entire song in one tonality/key