#2
Intro:
e----------------------------------
a---------------------------------
d---------------------------------
g--7------6------5-----------
b---5------5------5----5--------
e-----7-----6------5---3h4-----

e---------------------------3b--0
a--------2----------1--0-------
d--2--0----2----0-------------
g--------------------------------
b--------------------------------
e--------------------------------

the rest of it is a reg blue shuffle
E A E B A E
Last edited by Nitnatsnok at Oct 4, 2014,
#3
Thank you this helps alot =)

What is a 'blues shuffle'?

E A E B A E - are those cords or just notes?

Thank you again I sure appreciate your help
Last edited by mooglesRcute at Oct 6, 2014,
#6
still having trouble with this song from :25 seconds till :60 secondish

I got the rhythm down, just having trouble with the lead.

would love any help