#1
I don't need the entire song, just this riff from the videos

Riff @ 2:08
https://www.youtube.com/watch?v=fyM0zlk39PA

https://www.youtube.com/watch?v=RX7p-E4NOq4

I got some of it tabbed out but I can't figure out the other notes

----------------------------------------------------------------
----------------------------------------------------------------
----------------------------------------------------------------
----------6--------6---------6/7\6---------------------------
-----0--------0--------0--------------------------------------
---4---4---4---4---4----4-4/5\4---------------------------

----------------------------------------------------------------
----------------------------------------------------------------
-------------------------------------------------1--------------
-----------9------------8------------9---------2---------3---
-----------10---------- 9-----------8----------2---------3---
---0-0-0--11-0-0-0--7---0-0-0-7----0-0--0-0-0-0-1---

Much thanks if you can help me out with this!
#4
Sorry the tab looks a bit trippy but hopefully you can read it.

e|---------------------------------------|
B|---------------------------------------|
G|---------------------------------------|
D|----------6------------6-/-7-\-6-----| x2
A|-----0-----------0--------------------|
E|--4----4------4---4-(4)/(5)\(4)----|

e|---------------------------------------------------------------------|
B|---------------------------------------------------------------------|
G|---------------------------------------------------------------------|
D|----------6----------6-------------------------------------(2)-------|
A|-----0----------0------------8-----5h6---5--------1----(2)-------|
E|--4----4-----4---4----/6-7---7-------7---6\--0----3-0--------|

e|-----------------------------------------------0-0-----------------------------|
B|--------12---12--------9---9------9------0-0-----------------------------|
G|--------9-----9---------9---9------9------1-1---------0-0----------------|
D|--------10----10-------9---9------8------2-2---------3-3---------5/------|
A|--------11----11--------7---7------7------2-2---------2-2--------x--------|
E|-000--------------000--------0-0----00-0-0---000-1-1--000-3/------|

e|----------------------------------------------|
B|----------------------------------------------|
G|----------------------------------------------|
D|----------------------------------------------|
A|----------------------------------------------|
E|--0--12--10--12/13----12-----0--1p0--|
Last edited by imspazzen at Oct 27, 2014,